Sound will begin in 5 seconds

Armando's rumba solos bajo

01234567891011121314151617181920212223
E
B
G
D
A
E
B
0 1 2 3 4 5 6 7 8 9 10 11 12 13 14 15 16 17 18 19 20 21 22 23
Song Science #1: How Pros Use 6 Chords to Write Hit Songs
(/) Slide Up  (\) Slide Down  (h) Hammer On  (p) Pull Off  (b) Bend (r) Release (v) Vibrato

Stave 1:

G|------17--17--17-----------------------------
D|--17--------------17---------15--15--15--13--
A|-------------------------15------------------
E|---------------------------------------------

Stave 2:

G|---------------------------------------------------
D|------13--13--12-----10---------10-----------------
A|--10------------------------10------10------10-----
E|----------------------------------------11------8--

Stave 3:

G|--5/16p17-----17--15-------------------------17------
D|----------------------17--15---------------------15--
A|------------------------------18--15-----18----------
E|-----------------------------------------------------

Stave 4:

G|----------------------15--17--18--19--17--15--14------17--15--13--
D|--16--19--16--17--19------------------------------17--------------
A|------------------------------------------------------------------
E|------------------------------------------------------------------

Stave 5:

G|--17--15--14--19--17--15------------------18h16--18h16--20--
D|--------------------------13--15--15--15--------------------
A|------------------------------------------------------------
E|------------------------------------------------------------

Stave 6:

G|------17--17--17------15---------15--17--15----------17--17--
D|--17--------------17---------17--------------17--15----------
A|-------------------------------------------------------------
E|-------------------------------------------------------------

Stave 7:

G|--15------17--15----------15------------------------------------
D|------17----------17--15------17--15------17--15----------0--0--
A|--------------------------------------18----------15--15--------
E|----------------------------------------------------------------

Stave 8:

G|--------------12--14--16--17--19-----19--17--16------17--15--
D|--12--14--15-------------------------------------17----------
A|-------------------------------------------------------------
E|-------------------------------------------------------------

Stave 9:

G|----------------------17--15--13--13h15--13--12--11b---
D|--13------13------17-----------------------------------
A|------15------15---------------------------------------
E|-------------------------------------------------------

Stave 10:

G|--12--14--15--17--19--17--15--14--17--15--12b---17--15--13--
D|------------------------------------------------------------
A|------------------------------------------------------------
E|------------------------------------------------------------

Stave 11:

G|-----------8--8--8--------
D|--------------------7--6--
A|--6--6--6-----------------
E|--------------------------

Stave 12:

G|--------------------------------5--3--3b---
D|-----2--3--5--6--7--------4--7-------------
A|--3--------------------5-------------------
E|-------------------------------------------

Stave 13:

G|-----------------------14--15--17--17--15--17----------12--15--17--17---------12--15--15--18--18p16h18p16-------------
D|--5--6--8--5-----------------------------------------------------------0----------------------------------------------
A|--------------8/12-----------------------------13-------------------------13------------------------------------------
E|---------------------------------------------------11---------------------------------------------------------12--11--

Stave 14:

G|----------------7--8--5--7--5--------------------------------
D|--------7/9-----------------------5--6--5--3--5--3--5--6--3--
A|--5--5-------------------------------------------------------
E|-------------------------------------------------------------

Stave 15:

G|---------------------12--17--20-----21-----20-----21-----20--17--
D|-------------10--13----------------------------------------------
A|---------10------------------------------------------------------
E|--8--11----------------------------------------------------------

Stave 16:

G|--------------------5--------4--6--6--6--4--6--4--6--8-----
D|-----------5--6--8--------5-----------------------------5--
A|--5--6--8--------------------------------------------------
E|-----------------------------------------------------------

Stave 17:

G|--------------------17--17--17------17-----12--13--15--13--12---------------------17--15--14---------------------
D|--------------------------------17-----------------------------13-----13--15--17-----------------6h7--7h8--------
A|------------10--15-----------------------------------------------------------------------------------------8-----
E|--8--8--11----------------------------------------------------------------------------------------------------6--

http://www.guitartabcreator.com
Guitar Tab Creator is intended to store guitar tab created through the tool. It currently does not support in-line text editing. Any text you place in here will be lost. If you need to comment on your tab, please use the "Tab Notes" section located below.