melodic metal riffage

01234567891011121314151617181920212223
E
B
G
D
A
E
B
0 1 2 3 4 5 6 7 8 9 10 11 12 13 14 15 16 17 18 19 20 21 22 23
(/) Slide Up  (\) Slide Down  (h) Hammer On  (p) Pull Off  (b) Bend (r) Release (v) Vibrato

Stave 1:

C |----------------------------------------------------------------------------------------------
G |----------------------------------------------------------------------------------------------
Eb|----------------------------------------------------------------------------------------------
Bb|----------------------------------------------------------------------------------------------
F |--7-----------------------10--10--10--9--7/6\7--------------7-----------10--10--10--9--7/6\7--
C |-----0--0--0--8--0--0--0------------------------8--0--0--0-----0--0--0------------------------

Stave 2:

C |-------------------------------------------------------------------------------
G |-------------------------------------------------------------------------------
Eb|-------------------------------------------------------------------------------
Bb|---------------------------7bv--7----------------------------------------------
F |--7--------------7--9--10----------10--9---------------------------------------
C |-----0--0--0--8---------------------------8--8--9--8--7--7--7--7--7h8p7--0--0--

							http://www.guitartabcreator.com
Chords

Tab Notes
all opens are palm muted
genre
Instruments
{"strings":[[[".",".",".",".",".",".",".",".",".",".",".",".",".",".",".",".",".",".",".",".",".",".",".",".",".",".",".",".",".",".",".",".",".","."],[".",".",".",".",".",".",".",".",".",".",".",".",".",".",".",".",".",".",".",".",".",".",".",".",".",".",".",".",".",".",".",".",".","."],[".",".",".",".",".",".",".",".",".",".",".",".",".",".",".",".",".",".",".",".",".",".",".",".",".",".",".",".",".",".",".",".",".","."],[".",".",".",".",".",".",".",".",".",".",".",".",".",".",".",".",".",".",".",".",".",".",".",".",".",".",".",".",".",".",".",".",".","."],[7,".",".",".",".",".",".",".",10,10,10,9,7,"/",6,"\\",7,".",".",".",".",7,".",".",".",10,10,10,9,7,"/",6,"\\",7],[".",0,0,0,8,0,0,0,".",".",".",".",".",".",".",".",".",8,0,0,0,".",0,0,0,".",".",".",".",".",".",".",".","."]],[[".",".",".",".",".",".",".",".",".",".",".",".",".",".",".",".",".",".",".",".",".",".",".",".",".",".",".",".","."],[".",".",".",".",".",".",".",".",".",".",".",".",".",".",".",".",".",".",".",".",".",".",".",".",".",".",".",".","."],[".",".",".",".",".",".",".",".",".",".",".",".",".",".",".",".",".",".",".",".",".",".",".",".",".",".",".",".","."],[".",".",".",".",".",".",".",".",7,"b","v",7,".",".",".",".",".",".",".",".",".",".",".",".",".",".",".",".","."],[7,".",".",".",".",7,9,10,".",".",".",".",10,9,".",".",".",".",".",".",".",".",".",".",".",".",".",".","."],[".",0,0,0,8,".",".",".",".",".",".",".",".",".",8,8,9,8,7,7,7,7,7,"h",8,"p",7,0,0]]],"numberofstrings":6,"notes":["C","G","DsEb","AsBb","F","C"],"capo":0,"stringnotes":["C3","G2","Eb2","Bb1","F1","C1"],"comments":["Stave 1:","Stave 2:"],"timing":[["W","W","W","W","W","W","W","W","W","W","W","W","W",null,"W",null,"W","W","W","W","W","W","W","W","W","W","W","W","W","W",null,"W",null,"W"],["W","W","W","W","W","W","W","W","W",null,null,"W","W","W","W","W","W","W","W","W","W","W","W",null,"W",null,"W","W","W"]],"timingvisible":false,"tabcounter":29,"stave":1,"totalstaves":2,"instrument":"6guitar","selectedtuning":"C Tuning","version":"13"}

Member for

4 months
Submitted by Jubal Smith on Thu, 2021-06-17 23:41