BESOS EN GUERRA

Chords

01234567891011121314151617181920212223
E
B
G
D
A
E
B
0 1 2 3 4 5 6 7 8 9 10 11 12 13 14 15 16 17 18 19 20 21 22 23
(/) Slide Up  (\) Slide Down  (h) Hammer On  (p) Pull Off  (b) Bend (r) Release (v) Vibrato

Stave 1:

E|-------------------------------------------------------------------------------
B|-----------3--2--3-------------------------------------------------------------
G|-------------------------------------------------------------------------------
D|-----------------------------5--4--5--------------5--4----------4--5--4--------
A|--2--2--2--------------------------------5--5--5--------5/7--------------7--5--
E|--------------------3--3--3----------------------------------5-----------------

Stave 2:

E|--------------------------|-----------------------|--------------------------------------------
B|--------------------------|-----------------------|--------------------------------------------
G|--------------------0--0--|-----------------------|-----------------2--0-----0--0--0--2--0-----
D|--4--4--4--4--4--0--------|--4--4--4--4--4--2--2--|--4--4--4--4--4--------------------------4--
A|--------------------------|-----------------------|--------------------------------------------
E|--------------------------|-----------------------|--------------------------------------------

Stave 3:

E|--------------------|-----------------------------|-----------------------|-----------------------
B|--------------------|--3--3--3--3--3--2--0--------|-----------------------|-----------------------
G|-----------0--------|-----------------------2--0--|--2--2--2--2--2--------|-----------------2--0--
D|--4--4--4-----4--2--|-----------------------------|-----------------4--2--|--4--4--4--4--4--------
A|--------------------|-----------------------------|-----------------------|-----------------------
E|--------------------|-----------------------------|-----------------------|-----------------------

Stave 4:

E|--------------------------------------|--------------------------0-----------------0-----3--2--
B|--------------------------------------|--3--2--0-----2-----3-----------2-----3-----------------
G|--0--0--0--2--0--------------0--------|--------------------------------------------------------
D|-----------------4--4--4--4-----4--2--|--------------------------------------------------------
A|--------------------------------------|--------------------------------------------------------
E|--------------------------------------|--------------------------------------------------------

Stave 5:

E|--2--2--2--3--3--3--3--3--2--2--0-----|--2--2--2--0--0--0--2--3--2--------|--2--3--3--3--3--3--
B|-----------------------------------3--|-----------------------------3--0--|--------------------
G|--------------------------------------|-----------------------------------|--------------------
D|--------------------------------------|-----------------------------------|--------------------
A|--------------------------------------|-----------------------------------|--------------------
E|--------------------------------------|-----------------------------------|--------------------

Stave 6:

E|--5--5-----2--2--3--2--0-----3--2--|--2--2--2--3--3--3--3--3--2--2--0-----|--2--2--2--0--0--0--
B|-----------------------------------|-----------------------------------3--|--------------------
G|-----------------------------------|--------------------------------------|--------------------
D|-----------------------------------|--------------------------------------|--------------------
A|-----------------------------------|--------------------------------------|--------------------
E|-----------------------------------|--------------------------------------|--------------------

Stave 7:

E|--2--3--2--------|--2--3--3--3--3--5--5-----2--2--2--3--2--0-----0--0--2--3--2--------
B|-----------3--0--|--------------------------------------------------------------3--0--
G|-----------------|--------------------------------------------------------------------
D|-----------------|--------------------------------------------------------------------
A|-----------------|--------------------------------------------------------------------
E|-----------------|--------------------------------------------------------------------

Stave 8:

E|--2-----0--------|-----2--2--2--2--3--2--0-----0--0--0--0-----------|--2-----3--------2--2--2--2--
B|--------------3--|--0--------------------------------------2--3--0--|--------------0--------------
G|-----------------|--------------------------------------------------|-----------------------------
D|-----------------|--------------------------------------------------|-----------------------------
A|-----------------|--------------------------------------------------|-----------------------------
E|-----------------|--------------------------------------------------|-----------------------------

Stave 9:

E|--3--2--0-----0--0--0--0-----------|--2-----3-----------2--2--2--2--3--0-----|--------------------
B|--------------------------2--3--0--|-----------------0--------------------3--|--3--3--3--3--2--0--
G|-----------------------------------|-----------------------------------------|--------------------
D|-----------------------------------|-----------------------------------------|--------------------
A|-----------------------------------|-----------------------------------------|--------------------
E|-----------------------------------|-----------------------------------------|--------------------

Stave 10:

E|-----------------------------|--------------------------------------------------------------
B|-----------------------------|--3--3--3--3--2--0-----0--0--2--3--0--------------3--5--5--2--
G|--2--0-----2--2--2--2--------|--------------------------------------2--2--2--2--------------
D|-----------------------4--2--|--------------------------------------------------------------
A|-----------------------------|--------------------------------------------------------------
E|-----------------------------|--------------------------------------------------------------

Stave 11:

E|--------------------------0-----------------0-----3--2--|--2--2--3--3--3--3--3--2--2--0--------
B|--3--2--0-----2-----3-----------2-----3-----------------|--------------------------------3-----
G|--------------------------------------------------------|--------------------------------------
D|--------------------------------------------------------|--------------------------------------
A|--------------------------------------------------------|--------------------------------------
E|--------------------------------------------------------|--------------------------------------

Stave 12:

E|--2--2--2--0--0--0--2--3--2--------|--2--3--3--3--3--5--5--2--2--2--3--2--0-----3--2--------
B|-----------------------------3--0--|--------------------------------------------------------
G|-----------------------------------|--------------------------------------------------------
D|-----------------------------------|--------------------------------------------------------
A|-----------------------------------|--------------------------------------------------------
E|-----------------------------------|--------------------------------------------------------

Stave 13:

E|--2--2--3--3--3--3--2--2--0-----|--2--2--2--0--0--0--2--3--2--------2--2--2--3--3--3--3--5--5-----
B|-----------------------------3--|-----------------------------3--0--------------------------------
G|--------------------------------|-----------------------------------------------------------------
D|--------------------------------|-----------------------------------------------------------------
A|--------------------------------|-----------------------------------------------------------------
E|--------------------------------|-----------------------------------------------------------------

Stave 14:

E|--2--2--3--2--0-----0--0--2--3--------|--2-----3--------2--2--2--2--3--0-----0--0--0--0-----------
B|--------------------------------3--0--|--------------0-----------------------------------2--3--0--
G|--------------------------------------|-----------------------------------------------------------
D|--------------------------------------|-----------------------------------------------------------
A|--------------------------------------|-----------------------------------------------------------
E|--------------------------------------|-----------------------------------------------------------

Stave 15:

E|--2-----3--------2--2--2--2--3--2--0-----0--0--0--0-----------|--2-----3--------2--2--2--2--
B|--------------0--------------------------------------2--3--0--|--------------0--------------
G|--------------------------------------------------------------|-----------------------------
D|--------------------------------------------------------------|-----------------------------
A|--------------------------------------------------------------|-----------------------------
E|--------------------------------------------------------------|-----------------------------

Stave 16:

E|--3--2--0-----|--------------------------------------------------------------0--------0--
B|-----------2--|--3--3--3--3--3--0--2--3--2--0--------3--3--3--3--3-----0--3-----0--3-----
G|--------------|--------------------------------2-----------------------------------------
D|--------------|--------------------------------------------------------------------------
A|--------------|--------------------------------------------------------------------------
E|--------------|--------------------------------------------------------------------------

Stave 17:

E|-----------------------------------------------------------------0--------0--2--2--2--2--2--2--2--
B|--3--3--3--3--3--3--0--2--3--2--0--------3--3--3--3--3--3--0--3-----0--3--------------------------
G|-----------------------------------2--------------------------------------------------------------
D|--------------------------------------------------------------------------------------------------
A|--------------------------------------------------------------------------------------------------
E|--------------------------------------------------------------------------------------------------

Stave 18:

E|--5--3--2--0-----------2--2--2--2--2--0--0--
B|--------------3-----------------------------
G|--------------------------------------------
D|--------------------------------------------
A|--------------------------------------------
E|--------------------------------------------

							http://www.guitartabcreator.com
Instruments
{"strings":[[[".",".",".",".",".",".",".",".",".",".",".",".","_",".",".",".",".",".",".",".",".",".",".",".",".",".","."],[".",".",".",3,2,3,".",".",".",".",".",".","_",".",".",".",".",".",".",".",".",".",".",".",".",".","."],[".",".",".",".",".",".",".",".",".",".",".",".","_",".",".",".",".",".",".",".",".",".",".",".",".",".","."],[".",".",".",".",".",".",".",".",".",5,4,5,"_",".",".",".",5,4,".",".",".",".",4,5,4,".","."],[2,2,2,".",".",".",".",".",".",".",".",".","_",5,5,5,".",".",5,"/",7,".",".",".",".",7,5],[".",".",".",".",".",".",3,3,3,".",".",".","_",".",".",".",".",".",".",".",".",5,".",".",".",".","."]],[[".",".",".",".",".",".",".",".","|",".",".",".",".",".",".",".","|",".",".",".",".",".",".",".","_",".",".",".",".",".","."],[".",".",".",".",".",".",".",".","|",".",".",".",".",".",".",".","|",".",".",".",".",".",".",".","_",".",".",".",".",".","."],[".",".",".",".",".",".",0,0,"|",".",".",".",".",".",".",".","|",".",".",".",".",".",2,0,"_",0,0,0,2,0,"."],[4,4,4,4,4,0,".",".","|",4,4,4,4,4,2,2,"|",4,4,4,4,4,".",".","_",".",".",".",".",".",4],[".",".",".",".",".",".",".",".","|",".",".",".",".",".",".",".","|",".",".",".",".",".",".",".","_",".",".",".",".",".","."],[".",".",".",".",".",".",".",".","|",".",".",".",".",".",".",".","|",".",".",".",".",".",".",".","_",".",".",".",".",".","."]],[[".",".",".",".",".",".","|",".",".",".",".",".",".",".",".",".","|",".",".",".",".",".",".",".","|",".",".",".",".",".",".","."],[".",".",".",".",".",".","|",3,3,3,3,3,2,0,".",".","|",".",".",".",".",".",".",".","|",".",".",".",".",".",".","."],[".",".",".",0,".",".","|",".",".",".",".",".",".",".",2,0,"|",2,2,2,2,2,".",".","|",".",".",".",".",".",2,0],[4,4,4,".",4,2,"|",".",".",".",".",".",".",".",".",".","|",".",".",".",".",".",4,2,"|",4,4,4,4,4,".","."],[".",".",".",".",".",".","|",".",".",".",".",".",".",".",".",".","|",".",".",".",".",".",".",".","|",".",".",".",".",".",".","."],[".",".",".",".",".",".","|",".",".",".",".",".",".",".",".",".","|",".",".",".",".",".",".",".","|",".",".",".",".",".",".","."]],[[".",".",".",".",".",".",".",".",".",".",".",".","|",".",".",".","_",".","_",".","_",0,"_",".","_",".","_",0,"_",3,2],[".",".",".",".",".",".",".",".",".",".",".",".","|",3,2,0,"_",2,"_",3,"_",".","_",2,"_",3,"_",".","_",".","."],[0,0,0,2,0,".",".",".",".",0,".",".","|",".",".",".","_",".","_",".","_",".","_",".","_",".","_",".","_",".","."],[".",".",".",".",".",4,4,4,4,".",4,2,"|",".",".",".","_",".","_",".","_",".","_",".","_",".","_",".","_",".","."],[".",".",".",".",".",".",".",".",".",".",".",".","|",".",".",".","_",".","_",".","_",".","_",".","_",".","_",".","_",".","."],[".",".",".",".",".",".",".",".",".",".",".",".","|",".",".",".","_",".","_",".","_",".","_",".","_",".","_",".","_",".","."]],[[2,2,2,3,3,3,3,3,2,2,0,".","|",2,2,2,0,0,0,2,3,2,".",".","|",2,3,3,3,3,3],[".",".",".",".",".",".",".",".",".",".",".",3,"|",".",".",".",".",".",".",".",".",".",3,0,"|",".",".",".",".",".","."],[".",".",".",".",".",".",".",".",".",".",".",".","|",".",".",".",".",".",".",".",".",".",".",".","|",".",".",".",".",".","."],[".",".",".",".",".",".",".",".",".",".",".",".","|",".",".",".",".",".",".",".",".",".",".",".","|",".",".",".",".",".","."],[".",".",".",".",".",".",".",".",".",".",".",".","|",".",".",".",".",".",".",".",".",".",".",".","|",".",".",".",".",".","."],[".",".",".",".",".",".",".",".",".",".",".",".","|",".",".",".",".",".",".",".",".",".",".",".","|",".",".",".",".",".","."]],[[5,5,"_",2,2,3,2,0,"_",3,2,"|",2,2,2,3,3,3,3,3,2,2,0,".","|",2,2,2,0,0,0],[".",".","_",".",".",".",".",".","_",".",".","|",".",".",".",".",".",".",".",".",".",".",".",3,"|",".",".",".",".",".","."],[".",".","_",".",".",".",".",".","_",".",".","|",".",".",".",".",".",".",".",".",".",".",".",".","|",".",".",".",".",".","."],[".",".","_",".",".",".",".",".","_",".",".","|",".",".",".",".",".",".",".",".",".",".",".",".","|",".",".",".",".",".","."],[".",".","_",".",".",".",".",".","_",".",".","|",".",".",".",".",".",".",".",".",".",".",".",".","|",".",".",".",".",".","."],[".",".","_",".",".",".",".",".","_",".",".","|",".",".",".",".",".",".",".",".",".",".",".",".","|",".",".",".",".",".","."]],[[2,3,2,".",".","|",2,3,3,3,3,5,5,"_",2,2,2,3,2,0,"_",0,0,2,3,2,".","."],[".",".",".",3,0,"|",".",".",".",".",".",".",".","_",".",".",".",".",".",".","_",".",".",".",".",".",3,0],[".",".",".",".",".","|",".",".",".",".",".",".",".","_",".",".",".",".",".",".","_",".",".",".",".",".",".","."],[".",".",".",".",".","|",".",".",".",".",".",".",".","_",".",".",".",".",".",".","_",".",".",".",".",".",".","."],[".",".",".",".",".","|",".",".",".",".",".",".",".","_",".",".",".",".",".",".","_",".",".",".",".",".",".","."],[".",".",".",".",".","|",".",".",".",".",".",".",".","_",".",".",".",".",".",".","_",".",".",".",".",".",".","."]],[[2,"_",0,"_",".","|",".",2,2,2,2,3,2,0,"_",0,0,0,0,".",".",".","|",2,"_",3,"_",".",2,2,2,2],[".","_",".","_",3,"|",0,".",".",".",".",".",".",".","_",".",".",".",".",2,3,0,"|",".","_",".","_",0,".",".",".","."],[".","_",".","_",".","|",".",".",".",".",".",".",".",".","_",".",".",".",".",".",".",".","|",".","_",".","_",".",".",".",".","."],[".","_",".","_",".","|",".",".",".",".",".",".",".",".","_",".",".",".",".",".",".",".","|",".","_",".","_",".",".",".",".","."],[".","_",".","_",".","|",".",".",".",".",".",".",".",".","_",".",".",".",".",".",".",".","|",".","_",".","_",".",".",".",".","."],[".","_",".","_",".","|",".",".",".",".",".",".",".",".","_",".",".",".",".",".",".",".","|",".","_",".","_",".",".",".",".","."]],[[3,2,0,"_",0,0,0,0,".",".",".","|",2,"_",3,"_","_",".",2,2,2,2,3,0,".","|",".",".",".",".",".","."],[".",".",".","_",".",".",".",".",2,3,0,"|",".","_",".","_","_",0,".",".",".",".",".",".",3,"|",3,3,3,3,2,0],[".",".",".","_",".",".",".",".",".",".",".","|",".","_",".","_","_",".",".",".",".",".",".",".",".","|",".",".",".",".",".","."],[".",".",".","_",".",".",".",".",".",".",".","|",".","_",".","_","_",".",".",".",".",".",".",".",".","|",".",".",".",".",".","."],[".",".",".","_",".",".",".",".",".",".",".","|",".","_",".","_","_",".",".",".",".",".",".",".",".","|",".",".",".",".",".","."],[".",".",".","_",".",".",".",".",".",".",".","|",".","_",".","_","_",".",".",".",".",".",".",".",".","|",".",".",".",".",".","."]],[[".",".","_",".",".",".",".",".",".","|",".",".",".",".",".",".","_",".",".",".",".",".",".",".",".",".",".",".",".","."],[".",".","_",".",".",".",".",".",".","|",3,3,3,3,2,0,"_",0,0,2,3,0,".",".",".",".",3,5,5,2],[2,0,"_",2,2,2,2,".",".","|",".",".",".",".",".",".","_",".",".",".",".",".",2,2,2,2,".",".",".","."],[".",".","_",".",".",".",".",4,2,"|",".",".",".",".",".",".","_",".",".",".",".",".",".",".",".",".",".",".",".","."],[".",".","_",".",".",".",".",".",".","|",".",".",".",".",".",".","_",".",".",".",".",".",".",".",".",".",".",".",".","."],[".",".","_",".",".",".",".",".",".","|",".",".",".",".",".",".","_",".",".",".",".",".",".",".",".",".",".",".",".","."]],[[".",".",".","_",".","_",".","_",0,"_",".","_",".","_",0,"_",3,2,"|",2,2,3,3,3,3,3,2,2,0,".","_"],[3,2,0,"_",2,"_",3,"_",".","_",2,"_",3,"_",".","_",".",".","|",".",".",".",".",".",".",".",".",".",".",3,"_"],[".",".",".","_",".","_",".","_",".","_",".","_",".","_",".","_",".",".","|",".",".",".",".",".",".",".",".",".",".",".","_"],[".",".",".","_",".","_",".","_",".","_",".","_",".","_",".","_",".",".","|",".",".",".",".",".",".",".",".",".",".",".","_"],[".",".",".","_",".","_",".","_",".","_",".","_",".","_",".","_",".",".","|",".",".",".",".",".",".",".",".",".",".",".","_"],[".",".",".","_",".","_",".","_",".","_",".","_",".","_",".","_",".",".","|",".",".",".",".",".",".",".",".",".",".",".","_"]],[[2,2,2,0,0,0,2,3,2,".",".","|",2,3,3,3,3,5,5,2,2,2,3,2,0,"_",3,2,"_","_"],[".",".",".",".",".",".",".",".",".",3,0,"|",".",".",".",".",".",".",".",".",".",".",".",".",".","_",".",".","_","_"],[".",".",".",".",".",".",".",".",".",".",".","|",".",".",".",".",".",".",".",".",".",".",".",".",".","_",".",".","_","_"],[".",".",".",".",".",".",".",".",".",".",".","|",".",".",".",".",".",".",".",".",".",".",".",".",".","_",".",".","_","_"],[".",".",".",".",".",".",".",".",".",".",".","|",".",".",".",".",".",".",".",".",".",".",".",".",".","_",".",".","_","_"],[".",".",".",".",".",".",".",".",".",".",".","|",".",".",".",".",".",".",".",".",".",".",".",".",".","_",".",".","_","_"]],[[2,2,3,3,3,3,2,2,0,".","|",2,2,2,0,0,0,2,3,2,".",".",2,2,2,3,3,3,3,5,5,"_"],[".",".",".",".",".",".",".",".",".",3,"|",".",".",".",".",".",".",".",".",".",3,0,".",".",".",".",".",".",".",".",".","_"],[".",".",".",".",".",".",".",".",".",".","|",".",".",".",".",".",".",".",".",".",".",".",".",".",".",".",".",".",".",".",".","_"],[".",".",".",".",".",".",".",".",".",".","|",".",".",".",".",".",".",".",".",".",".",".",".",".",".",".",".",".",".",".",".","_"],[".",".",".",".",".",".",".",".",".",".","|",".",".",".",".",".",".",".",".",".",".",".",".",".",".",".",".",".",".",".",".","_"],[".",".",".",".",".",".",".",".",".",".","|",".",".",".",".",".",".",".",".",".",".",".",".",".",".",".",".",".",".",".",".","_"]],[[2,2,3,2,0,"_",0,0,2,3,".",".","|",2,"_",3,"_",".",2,2,2,2,3,0,"_",0,0,0,0,".",".","."],[".",".",".",".",".","_",".",".",".",".",3,0,"|",".","_",".","_",0,".",".",".",".",".",".","_",".",".",".",".",2,3,0],[".",".",".",".",".","_",".",".",".",".",".",".","|",".","_",".","_",".",".",".",".",".",".",".","_",".",".",".",".",".",".","."],[".",".",".",".",".","_",".",".",".",".",".",".","|",".","_",".","_",".",".",".",".",".",".",".","_",".",".",".",".",".",".","."],[".",".",".",".",".","_",".",".",".",".",".",".","|",".","_",".","_",".",".",".",".",".",".",".","_",".",".",".",".",".",".","."],[".",".",".",".",".","_",".",".",".",".",".",".","|",".","_",".","_",".",".",".",".",".",".",".","_",".",".",".",".",".",".","."]],[[2,"_",3,"_",".",2,2,2,2,3,2,0,"_",0,0,0,0,".",".",".","|",2,"_",3,"_",".",2,2,2,2],[".","_",".","_",0,".",".",".",".",".",".",".","_",".",".",".",".",2,3,0,"|",".","_",".","_",0,".",".",".","."],[".","_",".","_",".",".",".",".",".",".",".",".","_",".",".",".",".",".",".",".","|",".","_",".","_",".",".",".",".","."],[".","_",".","_",".",".",".",".",".",".",".",".","_",".",".",".",".",".",".",".","|",".","_",".","_",".",".",".",".","."],[".","_",".","_",".",".",".",".",".",".",".",".","_",".",".",".",".",".",".",".","|",".","_",".","_",".",".",".",".","."],[".","_",".","_",".",".",".",".",".",".",".",".","_",".",".",".",".",".",".",".","|",".","_",".","_",".",".",".",".","."]],[[3,2,0,".","|",".",".",".",".",".",".",".",".",".",".",".","_",".",".",".",".",".","_",".",".",0,".",".",0],[".",".",".",2,"|",3,3,3,3,3,0,2,3,2,0,".","_",3,3,3,3,3,"_",0,3,".",0,3,"."],[".",".",".",".","|",".",".",".",".",".",".",".",".",".",".",2,"_",".",".",".",".",".","_",".",".",".",".",".","."],[".",".",".",".","|",".",".",".",".",".",".",".",".",".",".",".","_",".",".",".",".",".","_",".",".",".",".",".","."],[".",".",".",".","|",".",".",".",".",".",".",".",".",".",".",".","_",".",".",".",".",".","_",".",".",".",".",".","."],[".",".",".",".","|",".",".",".",".",".",".",".",".",".",".",".","_",".",".",".",".",".","_",".",".",".",".",".","."]],[[".",".",".",".",".",".",".",".",".",".",".",".","_",".",".",".",".",".",".",".",".",0,".",".",0,2,2,2,2,2,2,2],[3,3,3,3,3,3,0,2,3,2,0,".","_",3,3,3,3,3,3,0,3,".",0,3,".",".",".",".",".",".",".","."],[".",".",".",".",".",".",".",".",".",".",".",2,"_",".",".",".",".",".",".",".",".",".",".",".",".",".",".",".",".",".",".","."],[".",".",".",".",".",".",".",".",".",".",".",".","_",".",".",".",".",".",".",".",".",".",".",".",".",".",".",".",".",".",".","."],[".",".",".",".",".",".",".",".",".",".",".",".","_",".",".",".",".",".",".",".",".",".",".",".",".",".",".",".",".",".",".","."],[".",".",".",".",".",".",".",".",".",".",".",".","_",".",".",".",".",".",".",".",".",".",".",".",".",".",".",".",".",".",".","."]],[[5,3,2,0,".","_","_",2,2,2,2,2,0,0],[".",".",".",".",3,"_","_",".",".",".",".",".",".","."],[".",".",".",".",".","_","_",".",".",".",".",".",".","."],[".",".",".",".",".","_","_",".",".",".",".",".",".","."],[".",".",".",".",".","_","_",".",".",".",".",".",".","."],[".",".",".",".",".","_","_",".",".",".",".",".",".","."]]],"numberofstrings":6,"notes":["E","B","G","D","A","E","B"],"capo":0,"stringnotes":["E4","B3","G3","D3","A2","E2"],"comments":["Stave 1:","Stave 2:","Stave 3:","Stave 4:","Stave 5:","Stave 6:","Stave 7:","Stave 8:","Stave 9:","Stave 10:","Stave 11:","Stave 12:","Stave 13:","Stave 14:","Stave 15:","Stave 16:","Stave 17:","Stave 18:"],"timing":[["W","W","W","W","W","W","W","W","W","W","W","W",null,"W","W","W","W","W","W",null,"W","W","W","W","W","W","W"],["W","W","W","W","W","W","W","W",null,"W","W","W","W","W","W","W",null,"W","W","W","W","W","W","W",null,"W","W","W","W","W","W"],["W","W","W","W","W","W",null,"W","W","W","W","W","W","W","W","W",null,"W","W","W","W","W","W","W",null,"W","W","W","W","W","W","W",null,"W","W","W"],["W","W","W","W","W","W","W","W","W","W","W","W",null,"W","W","W",null,"W",null,"W",null,"W",null,"W",null,"W",null,"W",null,"W","W"],["W","W","W","W","W","W","W","W","W","W","W","W",null,"W","W","W","W","W","W","W","W","W","W","W",null,"W","W","W","W","W","W","W","W"],["W","W",null,"W","W","W","W","W",null,"W","W",null,"W","W","W","W","W","W","W","W","W","W","W","W",null,"W","W","W","W","W","W"],["W","W","W","W","W",null,"W","W","W","W","W","W","W",null,"W","W","W","W","W","W",null,"W","W","W","W","W","W","W"],["W","W","W",null,"W",null,"W","W","W","W","W","W","W","W",null,"W","W","W","W","W","W","W",null,"W",null,"W",null,"W","W","W","W","W"],["W","W","W",null,"W","W","W","W","W","W","W",null,"W",null,"W",null,null,"W","W","W","W","W","W","W","W",null,"W","W","W","W","W","W"],["W","W",null,"W","W","W","W","W","W",null,"W","W","W","W","W","W",null,"W","W","W","W","W","W","W","W","W","W","W","W","W"],["W","W","W",null,"W",null,"W",null,"W",null,"W",null,"W",null,"W",null,"W","W",null,"W","W","W","W","W","W","W","W","W","W","W",null,"W","W","W","W","W","W","W"],["W","W","W","W","W","W","W","W","W","W","W",null,"W","W","W","W","W","W","W","W","W","W","W","W","W",null,"W","W"],["W","W","W","W","W","W","W","W","W","W",null,"W","W","W","W","W","W","W","W","W","W","W","W","W","W","W","W","W","W","W","W",null,"W","W","W","W","W","W","W","W","W","W","W","W","W"],["W","W","W","W","W",null,"W","W","W","W","W","W",null,"W",null,"W",null,"W","W","W","W","W","W","W",null,"W","W","W","W","W","W","W"],["W",null,"W",null,"W","W","W","W","W","W","W","W",null,"W","W","W","W","W","W","W",null,"W",null,"W",null,"W","W","W","W","W"],["W","W","W","W",null,"W","W","W","W","W","W","W","W","W","W","W",null,"W","W","W","W","W","W","W","W","W","W","W","W"],["W","W","W","W","W","W","W","W","W","W","W","W","W","W","W","W","W","W","W","W","W","W","W","W","W","W","W","W","W","W","W","W","W","W","W","W"],["W","W","W","W","W",null,null,"W","W","W","W","W","W","W"]],"timingvisible":false,"tabcounter":14,"stave":17,"totalstaves":18,"instrument":"6guitar","selectedtuning":"6_standard","version":"13"}

Member for

2 months 1 week
Submitted by juanjoBC1A on Sat, 2020-05-30 00:44