Fly me to the Moon key of Dm

01234567891011121314151617181920212223
E
B
G
D
A
E
B
0 1 2 3 4 5 6 7 8 9 10 11 12 13 14 15 16 17 18 19 20 21 22 23
(/) Slide Up  (\) Slide Down  (h) Hammer On  (p) Pull Off  (b) Bend (r) Release (v) Vibrato

Stave 1:

G|--------------------------------------------------
D|--------------------------------------------------
A|-----4--5--6--7--5--4-----------4--7--5--4--------
E|--7--------------------7--5--7--------------2--4--
B|--------------------------------------------------

Stave 2:

G|--------------------------------------------------
D|--------------------2--5--4-----------------------
A|--------2--3--4--5--------------1--4--2--4--5--6--
E|--3--5-----------------------2--------------------
B|--------------------------------------------------

Stave 3:

G|--------------------------------------4-----------
D|-----4--5--6--7--5--4-----------4--5-----4--------
A|--7--------------------7--5--7--------------2--2--
E|--------------------------------------------------
B|--------------------------------------------------

Stave 4:

G|-----------------------------------7--6-----------
D|-----4--5--6--7-----------------4--------5--4-----
A|--7-----------------4--7--5--7--------------------
E|-----------------5-----------------------------6--
B|--------------------------------------------------

							http://www.guitartabcreator.com
Chords

Instruments
{"strings":[[[".",".",".",".",".",".",".",".",".",".",".",".",".",".",".","."],[".",".",".",".",".",".",".",".",".",".",".",".",".",".",".","."],[".",4,5,6,7,5,4,".",".",".",4,7,5,4,".","."],[7,".",".",".",".",".",".",7,5,7,".",".",".",".",2,4],[".",".",".",".",".",".",".",".",".",".",".",".",".",".",".","."]],[[".",".",".",".",".",".",".",".",".",".",".",".",".",".",".","."],[".",".",".",".",".",".",2,5,4,".",".",".",".",".",".","."],[".",".",2,3,4,5,".",".",".",".",1,4,2,4,5,6],[3,5,".",".",".",".",".",".",".",2,".",".",".",".",".","."],[".",".",".",".",".",".",".",".",".",".",".",".",".",".",".","."]],[[".",".",".",".",".",".",".",".",".",".",".",".",4,".",".","."],[".",4,5,6,7,5,4,".",".",".",4,5,".",4,".","."],[7,".",".",".",".",".",".",7,5,7,".",".",".",".",2,2],[".",".",".",".",".",".",".",".",".",".",".",".",".",".",".","."],[".",".",".",".",".",".",".",".",".",".",".",".",".",".",".","."]],[[".",".",".",".",".",".",".",".",".",".",".",7,6,".",".","."],[".",4,5,6,7,".",".",".",".",".",4,".",".",5,4,"."],[7,".",".",".",".",".",4,7,5,7,".",".",".",".",".","."],[".",".",".",".",".",5,".",".",".",".",".",".",".",".",".",6],[".",".",".",".",".",".",".",".",".",".",".",".",".",".",".","."]]],"numberofstrings":5,"notes":["G","D","A","E","B"],"capo":0,"stringnotes":["G2","D2","A1","E1","B0"],"comments":["Stave 1:","Stave 2:","Stave 3:","Stave 4:"],"timing":[["W","W","W","W","W","W","W","W","W","W","W","W","W","W","W","W"],["W","W","W","W","W","W","W","W","W","W","W","W","W","W","W","W"],["W","W","W","W","W","W","W","W","W","W","W","W","W","W","W","W"],["W","W","W","W","W","W","W","W","W","W","W","W","W","W","W","W"]],"timingvisible":false,"tabcounter":16,"stave":3,"totalstaves":4,"instrument":"5bass","selectedtuning":"5bass","version":"13"}

Member for

8 months
Submitted by JT968 on Wed, 2021-05-19 01:11