Sound will begin in 5 seconds

Love In Vain solo

Chords
01234567891011121314151617181920212223
E
B
G
D
A
E
B
0 1 2 3 4 5 6 7 8 9 10 11 12 13 14 15 16 17 18 19 20 21 22 23
Song Science #1: How Pros Use 6 Chords to Write Hit Songs
(/) Slide Up  (\) Slide Down  (h) Hammer On  (p) Pull Off  (b) Bend (r) Release (v) Vibrato

Stave 1:

E|-----------------15-------------------------------------------------------------
B|-------11-13b15v----13b15-13b15-13b15r15p13----------15-------------------------
G|-10h12-----------------------------------------15h17----17p15h17b19r17-15----15-
D|--------------------------------------------17----------------------------17----
A|--------------------------------------------------------------------------------
E|--------------------------------------------------------------------------------

Stave 2:

E|----------15-18-15v--------15-------------------------------------------15-------------------------------
B|-------18-----------18b20v----18-15h18p15----15----------------------------18p15-------------------------
G|-17b19------------------------------------17----17b19r17p15----15-17b19----------17b19r17p15----17p15----
D|------------------------------------------------------------17-------------------------------17-------17-
A|---------------------------------------------------------------------------------------------------------
E|---------------------------------------------------------------------------------------------------------

Stave 3:

E|----------------------------------------------------------------------------------17----------------------
B|-------------------------------------------------------------------------------------18p15----------------
G|-17----15-17b19-17b19-17b19-17b19-17b19-17b19-17b19-17b19-17b19r17p15----15-17b19----------17b19r17p15-17-
D|----17----------------------------------------------------------------17----------------------------------
A|----------------------------------------------------------------------------------------------------------
E|----------------------------------------------------------------------------------------------------------

Stave 4:

E|--------------------------15----18b20-18b20r18v-15-18--------15----------------------------------------
B|-----------------------------15-----------------------18b20v----18-15-18p15----15----------------------
G|-15b17v-17p15----15-17b19---------------------------------------------------17----17b19r17p15-17p15----
D|--------------17------------------------------------------------------------------------------------17-
A|-------------------------------------------------------------------------------------------------------
E|-------------------------------------------------------------------------------------------------------

Stave 5:

E|--------------------------------------------------------------------------------------------------------
B|--------------------------------------------------13b15-11b13r11----------------------------------------
G|-15h16-----------------12-14b16r14p12----14----12----------------12-10-12p10----------------------------
D|-------17-16-15v-12h14----------------14----14-------------------------------12p10/12-------------15----
A|--------------------------------------------------------------------------------------13h14-15/17----17-
E|--------------------------------------------------------------------------------------------------------

Stave 6:

E|-----------------------------------------------------------------------------------------------------------
B|-------------------------------15v-------15-18----15-18b20-18b20r18p15-18p15----15-------------------------
G|-------15-17b19r17p15----15h17-----15h17-------17----------------------------17----17b19r17p15-15----17----
D|-15h17----------------17--------------------------------------------------------------------------17----17-
A|-----------------------------------------------------------------------------------------------------------
E|-----------------------------------------------------------------------------------------------------------

Stave 7:

E|----------15-------18b20-18b20-18b20r18p15-18p15----15----------------------------------------------------
B|-------------15-15-------------------------------18----18p15-------------------------------------15h18p15-
G|-15-17b19----------------------------------------------------17b17r17-17p15-17p15----15h17-17b19----------
D|----------------------------------------------------------------------------------17----------------------
A|----------------------------------------------------------------------------------------------------------
E|----------------------------------------------------------------------------------------------------------

Stave 8:

E|-------------------------------------------------15------------------------------------10----10---8---8-
B|----------------------------------------------------15-15-18v-18v-15----15------------------------------
G|-17b19r17p15----15v-------15v----15v----15h16------------------------17----15h16----11----11----9---9---
D|-------------17-----17p15-----17-----17-------17---------------------------------17---------------------
A|--------------------------------------------------------------------------------------------------------
E|--------------------------------------------------------------------------------------------------------

Stave 9:

E|-7-6-5-----3---------------------
B|-6-5-4-------6p3-----------------
G|-7-6-5-3h4-------3h5-5-3h4-------
D|---------------------------5-4-3-
A|---------------------------------
E|---------------------------------

http://www.guitartabcreator.com
Guitar Tab Creator is intended to store guitar tab created through the tool. It currently does not support in-line text editing. Any text you place in here will be lost. If you need to comment on your tab, please use the "Tab Notes" section located below.