Sound will begin in 5 seconds

Love In Vain Slide Solo

01234567891011121314151617181920212223
E
B
G
D
A
E
B
0 1 2 3 4 5 6 7 8 9 10 11 12 13 14 15 16 17 18 19 20 21 22 23
Song Science #1: How Pros Use 6 Chords to Write Hit Songs
(/) Slide Up  (\) Slide Down  (h) Hammer On  (p) Pull Off  (b) Bend (r) Release (v) Vibrato

Stave 1:

E|-------15-15-15-14/15-14/15\13--------------------------15-15v-13/15-14/15/13-------------------------
B|-14/15-------------------------13/15-11/12--------13/15-----------------------14/15\14/15-11/12-------
G|-------------------------------------------12-12v-----------------------------------------------12/11-
D|------------------------------------------------------------------------------------------------------
A|------------------------------------------------------------------------------------------------------
E|------------------------------------------------------------------------------------------------------

Stave 2:

E|----------
B|----------
G|-12\11----
D|-------12-
A|----------
E|----------

Stave 3:

E|----------------------13v--------------------------------------15-15v-13/15-13/15-13/15-13/15\13-
B|-------11/12/13/14/15-----13/15-11/12-----11/13-15\13-11-13/15-----------------------------------
G|-11/12--------------------------------12v--------------------------------------------------------
D|-------------------------------------------------------------------------------------------------
A|-------------------------------------------------------------------------------------------------
E|-------------------------------------------------------------------------------------------------

Stave 4:

E|-----------------------------------------------------------------------------------------------------
B|-15\13-13-10/12--------------11/12/13/14/15/13v-13/15-10/12---------------------11/12----------------
G|----------------12\10----12v--------------------------------12v-9/10----9/10-12-------12\10----12\10-
D|----------------------12---------------------------------------------12---------------------12-------
A|-----------------------------------------------------------------------------------------------------
E|-----------------------------------------------------------------------------------------------------

Stave 5:

E|-------------13/15-13/15-13/15-13/15-15/13-----------------------------15-15-13/15-13/15-13/15-13/15-15\13-
B|-------------------------------------------15\13-13/15-10/12-----13/15-------------------------------------
G|----------12-------------------------------------------------12v-------------------------------------------
D|-12-11/12--------------------------------------------------------------------------------------------------
A|-----------------------------------------------------------------------------------------------------------
E|-----------------------------------------------------------------------------------------------------------

Stave 6:

E|-------------------15-15\13-----------------------------------------------------------
B|-15\13-13-11/12-------------15\13-13-------------------11-13-15v-13/15-13/15-10/12----
G|----------------12-------------------13/15----13v-v-12-----------------------------12-
D|-------------------------------------------15-----------------------------------------
A|--------------------------------------------------------------------------------------
E|--------------------------------------------------------------------------------------

http://www.guitartabcreator.com
Guitar Tab Creator is intended to store guitar tab created through the tool. It currently does not support in-line text editing. Any text you place in here will be lost. If you need to comment on your tab, please use the "Tab Notes" section located below.