King of My Heart (A) Capo 2

Chords

01234567891011121314151617181920212223
E
B
G
D
A
E
B
0 1 2 3 4 5 6 7 8 9 10 11 12 13 14 15 16 17 18 19 20 21 22 23
(/) Slide Up  (\) Slide Down  (h) Hammer On  (p) Pull Off  (b) Bend (r) Release (v) Vibrato

First Chorus: You are good (Play)

E|--7--
B|-----
G|-----
D|-----
A|-----
E|-----

Verse 2a: Palm mute, hammer on, pull off

E|------------------------------------------------------------------------------------
B|------------------------------------------------------------------------------------
G|--0--0--0--0--0--0--0--0--0--0--0--0--0h4--0--0--0--0--0--0--0--0--0--0--0--0--5p4--
D|------------------------------------------------------------------------------------
A|------------------------------------------------------------------------------------
E|------------------------------------------------------------------------------------

Verse 2: Finger Pluck

E|--3-----3-----3-----3-----5-----3-----3-----3-----5--
B|--3-----3-----3-----3-----3-----3-----3-----3-----3--
G|-----------------------------------------------------
D|-----------------------------------------------------
A|-----------------------------------------------------
E|-----------------------------------------------------

Chorus

E|--------10--------10--8------7--
B|-----8---------7------8------8--
G|--9---------7---------9------7--
D|----------------------10--------
A|--------------------------------
E|--------------------------------

Bridge

E|--7--7--7--7--10--10--10--10-----8---8------7--7--7--7-----
B|--8--8--8--8--8---8---8---8------8---8------8--8--8--8-----
G|--7--7--7--7--7---7---7---7------9---9------7--7--7--7-----
D|---------------------------------10--10--------------------
A|-----------------------------------------------------------
E|-----------------------------------------------------------

							http://www.guitartabcreator.com
Instruments
{"strings":[[[7],["."],["."],["."],["."],["."]],[[".",".",".",".",".",".",".",".",".",".",".",".",".",".",".",".",".",".",".",".",".",".",".",".",".",".",".",".",".","."],[".",".",".",".",".",".",".",".",".",".",".",".",".",".",".",".",".",".",".",".",".",".",".",".",".",".",".",".",".","."],[0,0,0,0,0,0,0,0,0,0,0,0,0,"h",4,0,0,0,0,0,0,0,0,0,0,0,0,5,"p",4],[".",".",".",".",".",".",".",".",".",".",".",".",".",".",".",".",".",".",".",".",".",".",".",".",".",".",".",".",".","."],[".",".",".",".",".",".",".",".",".",".",".",".",".",".",".",".",".",".",".",".",".",".",".",".",".",".",".",".",".","."],[".",".",".",".",".",".",".",".",".",".",".",".",".",".",".",".",".",".",".",".",".",".",".",".",".",".",".",".",".","."]],[[3,".",3,".",3,".",3,".",5,".",3,".",3,".",3,".",5],[3,".",3,".",3,".",3,".",3,".",3,".",3,".",3,".",3],[".",".",".",".",".",".",".",".",".",".",".",".",".",".",".",".","."],[".",".",".",".",".",".",".",".",".",".",".",".",".",".",".",".","."],[".",".",".",".",".",".",".",".",".",".",".",".",".",".",".",".","."],[".",".",".",".",".",".",".",".",".",".",".",".",".",".",".",".","."]],[[".",".",10,".",".",10,8,".",7],[".",8,".",".",7,".",8,".",8],[9,".",".",7,".",".",9,".",7],[".",".",".",".",".",".",10,".","."],[".",".",".",".",".",".",".",".","."],[".",".",".",".",".",".",".",".","."]],[[7,7,7,7,10,10,10,10,".",8,8,".",7,7,7,7,"."],[8,8,8,8,8,8,8,8,".",8,8,".",8,8,8,8,"."],[7,7,7,7,7,7,7,7,".",9,9,".",7,7,7,7,"."],[".",".",".",".",".",".",".",".",".",10,10,".",".",".",".",".","."],[".",".",".",".",".",".",".",".",".",".",".",".",".",".",".",".","."],[".",".",".",".",".",".",".",".",".",".",".",".",".",".",".",".","."]]],"numberofstrings":6,"notes":["E","B","G","D","A","E","B"],"capo":0,"stringnotes":["E4","B3","G3","D3","A2","E2"],"comments":["First Chorus: You are good (Play)","Verse 2a: Palm mute, hammer on, pull off","Verse 2: Finger Pluck","Chorus","Bridge"],"timing":[[null,"W"],[null,"W","W","W","W","W","W","W","W","W","W","W","W","W",null,"W","W","W","W","W","W","W","W","W","W","W","W","W","W",null,"W",null,null,null,null,null,null,null,null,"W",null,null,null,null,"W"],[],[null,"W","W","W","W","W","W","W",null,"W"],[null,"W","W","W","W","W","W","W","W","W","W","W"]],"timingvisible":false,"tabcounter":17,"stave":4,"totalstaves":5,"instrument":"6guitar","selectedtuning":"6_standard","version":"13"}

Member for

2 years 9 months
Submitted by jsdemarco on Wed, 2020-10-07 08:34