Sound will begin in 5 seconds

walk away solo

01234567891011121314151617181920212223
E
B
G
D
A
E
B
0 1 2 3 4 5 6 7 8 9 10 11 12 13 14 15 16 17 18 19 20 21 22 23
Song Science #1: How Pros Use 6 Chords to Write Hit Songs
(/) Slide Up  (\) Slide Down  (h) Hammer On  (p) Pull Off  (b) Bend (r) Release (v) Vibrato

Stave 1:

D|-----------------------------------------------------------
A|--12b14----------10--12b13--10--12--10------10-------------
F|-------------11-------------------------11------11---------
C|---------10-----------------------------------------10--9--
G|-----------------------------------------------------------
C|-----------------------------------------------------------

Stave 2:

D|-------------------------------------------------
A|-------------------------------------------------
F|-------------------------------------------------
C|--7--9--10--7--9--10--9--7--9--11--10--9--10--7--
G|-------------------------------------------------
C|-------------------------------------------------

Stave 3:

D|--------------------------------------------
A|----------14--17p14------17b19--17--14--16--
F|------14-------------16---------------------
C|--16----------------------------------------
G|--------------------------------------------
C|--------------------------------------------

Stave 4:

D|-----------------------------------------------12------12--14--
A|-----------------------------------12--13--14------14----------
F|-----------------------11--13--14------------------------------
C|-------------9--11---------------------------------------------
G|--9--11--12---------9------------------------------------------
C|---------------------------------------------------------------

http://www.guitartabcreator.com
Guitar Tab Creator is intended to store guitar tab created through the tool. It currently does not support in-line text editing. Any text you place in here will be lost. If you need to comment on your tab, please use the "Tab Notes" section located below.