Sound will begin in 5 seconds

shadows die bvb

01234567891011121314151617181920212223
E
B
G
D
A
E
B
0 1 2 3 4 5 6 7 8 9 10 11 12 13 14 15 16 17 18 19 20 21 22 23
Song Science #1: How Pros Use 6 Chords to Write Hit Songs
(/) Slide Up  (\) Slide Down  (h) Hammer On  (p) Pull Off  (b) Bend (r) Release (v) Vibrato

Stave 1:

D|--------------------------------------------------------------------------
A|--------------------------------------------------------------------------
F|--------------------------------------------------------------------------
C|-----------2--------------------------------------------------------------
G|--------2-----2-----------2--3--2-----------1--2--1-----------1--2--1-----
C|--2--5-----------5--2--5-----------5--1--4-----------4--1--4-----------4--

Stave 2:

D|--------------------------------------------------------------------------------------------
A|--------------------------------------------------------------------------------------------
F|--------------------------------------------------------------------------------------------
C|--2--5---------------------1--------2--5--1-----9-----9--10-----9---------------9------------
G|--2--5--2/7--6\2--0--2--3-----3--2--2--5--1------------------------12-----7-----------7--10--
C|--2--5------------------------------2--5--1--9-----9---------9---------9-----9-----9---------

http://www.guitartabcreator.com
Guitar Tab Creator is intended to store guitar tab created through the tool. It currently does not support in-line text editing. Any text you place in here will be lost. If you need to comment on your tab, please use the "Tab Notes" section located below.