Sound will begin in 5 seconds

Drag me to the grave

01234567891011121314151617181920212223
E
B
G
D
A
E
B
0 1 2 3 4 5 6 7 8 9 10 11 12 13 14 15 16 17 18 19 20 21 22 23
Song Science #1: How Pros Use 6 Chords to Write Hit Songs
(/) Slide Up  (\) Slide Down  (h) Hammer On  (p) Pull Off  (b) Bend (r) Release (v) Vibrato

Stave 1:

E|--_-------------------------------------------
B|--_-------------------------------------------
G|--10--12--14--7--10--9--10--12--15--14--12--9--
D|--_-------------------------------------------
A|--8---10--12--5--8---7--8---10--13--12--10--7--
E|--_-------------------------------------------

Stave 2:

E|-----------------------------------------------------
B|-----------------------------------------------------
G|----12--14--7--10--9--10--12--15--12--14--10--12--9--
D|-----------------------------------------------------
A|----10--12--5--8---7--8---10--13--10--12--8---10--7--
E|-----------------------------------------------------

Stave 3:

E|-----------------------------------------------------------------------------------
B|-----------------------------------------------------------------------------------
G|-----------------------------------------------------------------------------------
D|-----------------------------------------------------------------------------------
A|-----------------------------------------------------------------------------------
E|--0--0--0--5--3--0--0--0--6--0--0--0--0--0--5--3--0--0--0--6--0--0--0--0--3--5--6--

http://www.guitartabcreator.com
Guitar Tab Creator is intended to store guitar tab created through the tool. It currently does not support in-line text editing. Any text you place in here will be lost. If you need to comment on your tab, please use the "Tab Notes" section located below.