Never Not

Chords

01234567891011121314151617181920212223
E
B
G
D
A
E
B
0 1 2 3 4 5 6 7 8 9 10 11 12 13 14 15 16 17 18 19 20 21 22 23
(/) Slide Up  (\) Slide Down  (h) Hammer On  (p) Pull Off  (b) Bend (r) Release (v) Vibrato

Stave 1:

E|-------------------------------------------------------------------------------------
B|-------10v--------8v--------6v-------------------------------------------------------
G|--------------------------------------9v--------7v--------5v--------7v--------9v-----
D|-------------------------------------------------------------------------------------
A|--0/8-------8--7------7--5------5----------------------------------------------------
E|-----------------------------------8------8--6------6--5------5--6------6--8------8--

Stave 2:

E|-------------------------------------------------------------------------------------
B|-------10v--------8v--------6v-------------------------------------------------------
G|--------------------------------------9v--------7v--------5v--------7v--------9v-----
D|-------------------------------------------------------------------------------------
A|--0/8-------8--7------7--5------5----------------------------------------------------
E|-----------------------------------8------8--6------6--5------5--6------6--8------8--

Stave 3:

E|--------------------------------
B|--10--8--6----------------------
G|------------10--7--5--7--10--9--
D|--------------------------------
A|--8---7--5----------------------
E|------------8---6--5--6--8---8--

Stave 4:

E|----------------------------
B|--10--8--6------------------
G|------------10--7--5--7--9--
D|----------------------------
A|--8---7--5------------------
E|------------8---6--5--8--8--

Stave 5:

E|--1--0--1--0--1--0--1--0--
B|--1--1--2--1--3--1--3--1--
G|--2--0--4--0--3--2--3--0--
D|--3--2--0--2--3--3--3--2--
A|--3--3--0--3--1--0--1--3--
E|--1--0--0--0--1--0--1--0--

							http://www.guitartabcreator.com
Instruments
{"strings":[[[".",".",".",".",".",".",".",".",".",".",".",".",".",".",".",".",".",".",".",".",".",".",".",".",".",".",".",".",".",".",".",".",".","."],[".",".",".",10,"v",".",".",8,"v",".",".",6,"v",".",".",".",".",".",".",".",".",".",".",".",".",".",".",".",".",".",".",".",".","."],[".",".",".",".",".",".",".",".",".",".",".",".",".",".",".",9,"v",".",".",7,"v",".",".",5,"v",".",".",7,"v",".",".",9,"v","."],[".",".",".",".",".",".",".",".",".",".",".",".",".",".",".",".",".",".",".",".",".",".",".",".",".",".",".",".",".",".",".",".",".","."],[0,"/",8,".",".",8,7,".",".",7,5,".",".",5,".",".",".",".",".",".",".",".",".",".",".",".",".",".",".",".",".",".",".","."],[".",".",".",".",".",".",".",".",".",".",".",".",".",".",8,".",".",8,6,".",".",6,5,".",".",5,6,".",".",6,8,".",".",8]],[[".",".",".",".",".",".",".",".",".",".",".",".",".",".",".",".",".",".",".",".",".",".",".",".",".",".",".",".",".",".",".",".",".","."],[".",".",".",10,"v",".",".",8,"v",".",".",6,"v",".",".",".",".",".",".",".",".",".",".",".",".",".",".",".",".",".",".",".",".","."],[".",".",".",".",".",".",".",".",".",".",".",".",".",".",".",9,"v",".",".",7,"v",".",".",5,"v",".",".",7,"v",".",".",9,"v","."],[".",".",".",".",".",".",".",".",".",".",".",".",".",".",".",".",".",".",".",".",".",".",".",".",".",".",".",".",".",".",".",".",".","."],[0,"/",8,".",".",8,7,".",".",7,5,".",".",5,".",".",".",".",".",".",".",".",".",".",".",".",".",".",".",".",".",".",".","."],[".",".",".",".",".",".",".",".",".",".",".",".",".",".",8,".",".",8,6,".",".",6,5,".",".",5,6,".",".",6,8,".",".",8]],[[".",".",".",".",".",".",".",".","."],[10,8,6,".",".",".",".",".","."],[".",".",".",10,7,5,7,10,9],[".",".",".",".",".",".",".",".","."],[8,7,5,".",".",".",".",".","."],[".",".",".",8,6,5,6,8,8]],[[".",".",".",".",".",".",".","."],[10,8,6,".",".",".",".","."],[".",".",".",10,7,5,7,9],[".",".",".",".",".",".",".","."],[8,7,5,".",".",".",".","."],[".",".",".",8,6,5,8,8]],[[1,0,1,0,1,0,1,0],[1,1,2,1,3,1,3,1],[2,0,4,0,3,2,3,0],[3,2,0,2,3,3,3,2],[3,3,0,3,1,0,1,3],[1,0,0,0,1,0,1,0]]],"numberofstrings":6,"notes":["E","B","G","D","A","E","B"],"capo":0,"stringnotes":["E4","B3","G3","D3","A2","E2"],"comments":["Stave 1:","Stave 2:","Stave 3:","Stave 4:","Stave 5:"],"timing":[["W",null,"W","W",null,"W","W","W",null,"W","W","W",null,"W","W","W",null,"W","W","W",null,"W","W","W",null,"W","W","W",null,"W","W","W",null,"W"],["W",null,"W","W",null,"W","W","W",null,"W","W","W",null,"W","W","W",null,"W","W","W",null,"W","W","W",null,"W","W","W",null,"W","W","W",null,"W"],["W","W","W","W","W","W","W","W","W"],["W","W","W","W","W","W","W","W"],["W","W","W","W","W","W","W","W","W","W"]],"timingvisible":false,"tabcounter":7,"stave":4,"totalstaves":5,"instrument":"6guitar","selectedtuning":"6_standard","version":"13"}

Member for

1 week 3 days
Submitted by jrlopez.backup on Fri, 2020-05-22 20:32