BAKA MITAI

Chords

01234567891011121314151617181920212223
E
B
G
D
A
E
B
0 1 2 3 4 5 6 7 8 9 10 11 12 13 14 15 16 17 18 19 20 21 22 23
(/) Slide Up  (\) Slide Down  (h) Hammer On  (p) Pull Off  (b) Bend (r) Release (v) Vibrato

Stave 1:

E|---------------------------------------------------3--1--------------|--
B|---------------------------------------------------------1--1--3--3--|--
G|--3--5--7--7--7--7--10--7--7--5--5--3--2--0--0--2--------------------|--
D|---------------------------------------------------------------------|--
A|---------------------------------------------------------------------|--
E|---------------------------------------------------------------------|--

Stave 2:

E|-----------3--5--3--------------------------------------------
B|--3--3--------------3--1--------------------------------------
G|--------3-----------------3--3--5--7--8--8--0--3--2--2--0--0--
D|--------------------------------------------------------------
A|--------------------------------------------------------------
E|--------------------------------------------------------------

Stave 3:

E|--3--3--3--3--3--------3--1--1-----1--------------------------------------
B|--------------------------------3-----4--4--4--4--4-----------------------
G|-----------------3--3--------------------------------0--2--3--5--7--7--7--
D|--------------------------------------------------------------------------
A|--------------------------------------------------------------------------
E|--------------------------------------------------------------------------

Stave 4:

E|--------------------3--1--1-----------------------------
B|-----------------------------3--3--3--4-----------4--3--
G|--0--2--3--3--2--0-----------------------3--0--3--------
D|--------------------------------------------------------
A|--------------------------------------------------------
E|--------------------------------------------------------

Stave 5:

E|--3--5--3--7--3--3--2--3--5--0--------------------0--0--2--7--3--5--3--3--
B|--------------------------------3--3--3--1--0--1--------------------------
G|--------------------------------------------------------------------------
D|--------------------------------------------------------------------------
A|--------------------------------------------------------------------------
E|--------------------------------------------------------------------------

Stave 6:

E|--3--5--3--7--0--0--2--2--5-----5--3--------------3--------------5--7--5--3--3--
B|-----------------------------3--------0--0--1--0-----0--0--1--0-----------------
G|--------------------------------------------------------------------------------
D|--------------------------------------------------------------------------------
A|--------------------------------------------------------------------------------
E|--------------------------------------------------------------------------------
Instruments
{"strings":[[[],[],[],[],[],[]]],"numberofstrings":6,"notes":["E","B","G","D","A","E","B"],"capo":0,"stringnotes":["E4","B3","G3","D3","A2","E2"],"comments":["Stave 1:"],"timing":[[]],"timingvisible":false,"tabcounter":0,"stave":0,"totalstaves":1,"instrument":"6guitar","selectedtuning":"6_standard","version":"13"}

Member for

1 month 3 weeks
Submitted by jouelle on Tue, 2020-10-06 04:38