Sound will begin in 5 seconds

Always Remember Us This Way

01234567891011121314151617181920212223
E
B
G
D
A
E
B
0 1 2 3 4 5 6 7 8 9 10 11 12 13 14 15 16 17 18 19 20 21 22 23
(/) Slide Up  (\) Slide Down  (h) Hammer On  (p) Pull Off  (b) Bend (r) Release (v) Vibrato

Stave 1:

E|-------------------------------------------------------------------------------
B|-------------------------------------------------------------------------------
G|-----7/9\7\5-----------7/9\7\5--------------5-----5-----5-----5-----5h7--4-----
D|--7-----------7-----7-----------7--5-----5-----5-----5-----5-----5-------------
A|-------------------------------------------------------------------------------
E|-------------------------------------------------------------------------------

Stave 2:

E|--------------------------------------------------------------------------------------------
B|--------------------------------------------------8--10--10--10--10/12--12b12b12b-------10--
G|-----7/9\7\5-----------7/9\7\5---------------7/9---------------------------------9----------
D|--7-----------7-----7-----------7\5/7-----------------------------------------------12------
A|--------------------------------------------------------------------------------------------
E|--------------------------------------------------------------------------------------------

Stave 3:

E|--------------------------------------------------------------------------------------------
B|-----8--10--10--10--10/12--12b12b12b--------------------8--10--8--5-------------------------
G|--9---------------------------------9--9\7--7-----7--9---------------------9\7\5--5--7--21--
D|--------------------------------------------------------------------------------------------
A|--------------------------------------------------------------------------------------------
E|--------------------------------------------------------------------------------------------

Stave 4:

E|-------------------------------------------------------------------------------------------------------
B|-------------------------------------------------------------------------------------------------------
G|--9b9--7--5--4-------------------------7/9\7\5-----------7/9\7\5---------------5-----5-----5-----5--4--
D|----------------7--9--10--10--------7-----------7-----7-----------7\5/9-----5-----5-----5-----5--------
A|-------------------------------------------------------------------------------------------------------
E|-------------------------------------------------------------------------------------------------------

Stave 5:

E|---------------------------------------------------------------------------------------------------------
B|------------------12b10--8--10--------12b10--8--10--8--10-------------13------13------13------13/15--12--
G|----------12--14-------------------------------------------10-----12------12------12------12-------------
D|--12--14-------------------------------------------------------------------------------------------------
A|---------------------------------------------------------------------------------------------------------
E|---------------------------------------------------------------------------------------------------------

Stave 6:

E|---------------------------15--17--17--17--17--17/19--19b19--19----------17-----
B|--12h13--12--------15--17----------------------------------------17--20---------
G|--------------------------------------------------------------------------------
D|--------------------------------------------------------------------------------
A|--------------------------------------------------------------------------------
E|--------------------------------------------------------------------------------

Stave 7:

E|----------15--17--17--17--17/19--19b19--19------------------------15--17--15--12-----17\15\----------------
B|--15--17------------------------------------17--17\15-----15--17---------------------------13--13--15--17--
G|-----------------------------------------------------------------------------------------------------------
D|-----------------------------------------------------------------------------------------------------------
A|-----------------------------------------------------------------------------------------------------------
E|-----------------------------------------------------------------------------------------------------------

Stave 8:

E|------------------------------------
B|--17b17--15--13--12--10h12--13--13--
G|------------------------------------
D|------------------------------------
A|------------------------------------
E|------------------------------------

http://www.guitartabcreator.com
Guitar Tab Creator is intended to store guitar tab created through the tool. It currently does not support in-line text editing. Any text you place in here will be lost. If you need to comment on your tab, please use the "Tab Notes" section located below.