Sound will begin in 5 seconds

Gates - Empty Canvas (half step down)

01234567891011121314151617181920212223
E
B
G
D
A
E
B
0 1 2 3 4 5 6 7 8 9 10 11 12 13 14 15 16 17 18 19 20 21 22 23
(/) Slide Up  (\) Slide Down  (h) Hammer On  (p) Pull Off  (b) Bend (r) Release (v) Vibrato

Intro/Verse (Guitar 1)

E|--------------------------------------
B|--------------------------------------
G|--------7\2--4--------------7/14--12--
D|-----9----------------0--9------------
A|--0-----------------------------------
E|--------------------------------------

Bridge

E|--------------------------------------------------------------------------------------
B|--22--22--22--22--22--22--22--22--22--22--22--22--22--22--22--20--20--20--20--19--15--
G|--------------------------------------------------------------------------------------
D|--------------------------------------------------------------------------------------
A|--------------------------------------------------------------------------------------
E|--------------------------------------------------------------------------------------



E|------------------------------9--------------------------------------------------------
B|-----7--------7-----10-----------10-----10--------10-----12--10------------------------
G|--7--------7------------7------------7---------7------7-------------9------9-----6--7--
D|-----------------7---------7----------------7--------------------------12-----7--------
A|---------------------------------------------------------------------------------------
E|---------------------------------------------------------------------------------------



E|--------------------------------------------------------------------------------------
B|--22--22--22--22--22--22--22--22--22--22--22--22--22--22--22--20--20--20--20--19--15--
G|--------------------------------------------------------------------------------------
D|--------------------------------------------------------------------------------------
A|--------------------------------------------------------------------------------------
E|--------------------------------------------------------------------------------------



E|--------------------------------------------------------------------------------------------------
B|--------------------------------------------------------------------------------------------------
G|--------------------------------------------------------------------------------------------------
D|--19--19--19--19--19--19--19--21--21--21--21--21--21--21--21--21--17--16--16--16--16--16--16------
A|----------------------------------------------------------------------------------------------17--
E|--------------------------------------------------------------------------------------------------

Last Chrous/Outro

E|--17--14--15-----15--17--14-----14--14--12-----12----------
B|---------------------------------------------------15--10--
G|-----------------------------------------------------------
D|-----------------------------------------------------------
A|-----------------------------------------------------------
E|-----------------------------------------------------------

http://www.guitartabcreator.com
Guitar Tab Creator is intended to store guitar tab created through the tool. It currently does not support in-line text editing. Any text you place in here will be lost. If you need to comment on your tab, please use the "Tab Notes" section located below.