Sound will begin in 5 seconds

ITHighest

Chords
01234567891011121314151617181920212223
E
B
G
D
A
E
B
0 1 2 3 4 5 6 7 8 9 10 11 12 13 14 15 16 17 18 19 20 21 22 23
Song Science #1: How Pros Use 6 Chords to Write Hit Songs
(/) Slide Up  (\) Slide Down  (h) Hammer On  (p) Pull Off  (b) Bend (r) Release (v) Vibrato

Stave 1:

E|--------------------------------------------------------------------------
B|-----------5-----------------5-----------------7-----------------7--------
G|--------7-----7-----------7-----7-----------7-----7-----------6-----6-----
D|-----7-----------7-----7-----------7-----7-----------7-----7-----------7--
A|--------------------------------------------------------------------------
D|--0-----------------0-----------------0-----------------0-----------------

Stave 2:

E|--------------------------------------------------------------------------
B|-----------5-----------------5-----------------7-----------------7--------
G|--------4-----4-----------4-----4-----------6-----6-----------6-----6-----
D|-----5-----------5-----5-----------5-----7-----------7-----7-----------7--
A|--------------------------------------------------------------------------
D|--5-----------------5-----------------7-----------------7-----------------

Stave 3:

E|--5--5--
B|--5--5--
G|--7--7--
D|--7--7--
A|--5--5--
D|--0--5--

Stave 4:

E|---------------------------------------
B|---------------------------------------
G|--7--7--7--7-------------7-------------
D|--7--7--7--9-------------9-------------
A|--5--7--9--10--10--9--7--10--10--9--7--
D|--0--0--0--0-------------0-------------

Stave 5:

E|--5--5--5--5--
B|--5--5--5--5--
G|--7--7--7--7--
D|--7--7--7--7--
A|--5--5--5--5--
D|--0--0--5--7--

Stave 6:

E|--5--------0--0--
B|--5--------0--0--
G|--7--7--4--0--0--
D|--7--7--4--4--5--
A|--5--4--2--5--5--
D|--0--4--0--5--5--

http://www.guitartabcreator.com
Guitar Tab Creator is intended to store guitar tab created through the tool. It currently does not support in-line text editing. Any text you place in here will be lost. If you need to comment on your tab, please use the "Tab Notes" section located below.