Sound will begin in 5 seconds

Always with you always with me - Joe Satarni

01234567891011121314151617181920212223
E
B
G
D
A
E
B
0 1 2 3 4 5 6 7 8 9 10 11 12 13 14 15 16 17 18 19 20 21 22 23
Song Science #1: How Pros Use 6 Chords to Write Hit Songs
(/) Slide Up  (\) Slide Down  (h) Hammer On  (p) Pull Off  (b) Bend (r) Release (v) Vibrato

Stave 1:

E|-----------------------------------------------------------------------
B|--4--5v--5\7v--7/9v--7--5--4--5v------------------4v--4/5v--4----------
G|----------------------------------4/6v--6--4v--6---------------6v------
D|-------------------------------------------------------------------4v--
A|-----------------------------------------------------------------------
E|-----------------------------------------------------------------------

Stave 2:

E|--------------------------------------------------------------------------
B|-----------------------------------4--5--7v--7/9--7v--7\5--5\4--4\2-------
G|---------4---------4/6v--8--6v--4------------------------------------2/4--
D|--4--4v-----4--4v---------------------------------------------------------
A|--------------------------------------------------------------------------
E|--------------------------------------------------------------------------

Stave 3:

E|------------------7--7--------9------9------9--11--12/14--11--------------
B|--4--5--5/7--7/9--------9/11-----11-----11--------------------14--14v--14b
G|--------------------------------------------------------------------------
D|--------------------------------------------------------------------------
A|--------------------------------------------------------------------------
E|--------------------------------------------------------------------------

http://www.guitartabcreator.com
Guitar Tab Creator is intended to store guitar tab created through the tool. It currently does not support in-line text editing. Any text you place in here will be lost. If you need to comment on your tab, please use the "Tab Notes" section located below.