Stan - Eminem Tabs

Chords

01234567891011121314151617181920212223
E
B
G
D
A
E
B
0 1 2 3 4 5 6 7 8 9 10 11 12 13 14 15 16 17 18 19 20 21 22 23
(/) Slide Up  (\) Slide Down  (h) Hammer On  (p) Pull Off  (b) Bend (r) Release (v) Vibrato

Stave 1:

E|--------0--0--0--1-----------------------------0-----0-----------0--0--0-----1-----------0--------------0--3--5--------0--------3--3--3-----3/5--------
B|--------1-----1-----3-----1--0-----1--3--0--1-----0--------------1--------------3-----1--------1--3--------------5--3-----------1----------------3-----
G|--------2-----2-----------------------------------------2--------2--------------------------------------------------------------2----------------------
D|-----2--2-----3--------3--------0-----------------------------2--2--------3--------3--------0--------0-----------------------2--2--------3----------3--
A|--0-----------------------------2-----------3-----2--------0--------------------------------2--------2-----3-----2--------0----------------------------
E|--------------------------------3-----------------------------------------------------------3--------3-------------------------------------------------

Stave 2:

E|-------0-----------------0--0h1--0-----0-----0--------0--0-----------0----------------0-------------0-------------0--
B|--3p1--------1--3-----1-------------------3-----------1-----3-----------1--------1h3--0--1--3--1h3--0--1--3h1--0--1--
G|------------------------------------------------------2-----------2-----------2-------0-------------0-------------2--
D|----------0--------0-------------------------------2--2--------3-----------3----------0-------------0-------------2--
A|----------2--------2-----3----------2-----------0-------------------------------------2-------------2-------------0--
E|----------3--------3------------------------------------------------------------------3-------------3----------------

							http://www.guitartabcreator.com
Instruments
{"strings":[[[".",".",0,0,0,1,".",".",".",".",".",".",".",".",".",0,".",0,".",".",".",0,0,0,".",1,".",".",".",0,".",".",".",".",0,3,5,".",".",0,".",".",3,3,3,".",3,"/",5,".","."],[".",".",1,".",1,".",3,".",1,0,".",1,3,0,1,".",0,".",".",".",".",1,".",".",".",".",3,".",1,".",".",1,3,".",".",".",".",5,3,".",".",".",1,".",".",".",".",".",".",3,"."],[".",".",2,".",2,".",".",".",".",".",".",".",".",".",".",".",".",".",2,".",".",2,".",".",".",".",".",".",".",".",".",".",".",".",".",".",".",".",".",".",".",".",2,".",".",".",".",".",".",".","."],[".",2,2,".",3,".",".",3,".",".",0,".",".",".",".",".",".",".",".",".",2,2,".",".",3,".",".",3,".",".",0,".",".",0,".",".",".",".",".",".",".",2,2,".",".",3,".",".",".",".",3],[0,".",".",".",".",".",".",".",".",".",2,".",".",".",3,".",2,".",".",0,".",".",".",".",".",".",".",".",".",".",2,".",".",2,".",3,".",2,".",".",0,".",".",".",".",".",".",".",".",".","."],[".",".",".",".",".",".",".",".",".",".",3,".",".",".",".",".",".",".",".",".",".",".",".",".",".",".",".",".",".",".",3,".",".",3,".",".",".",".",".",".",".",".",".",".",".",".",".",".",".",".","."]],[[".",".",".",0,".",".",".",".",".",0,0,"h",1,0,".",0,".",0,".",".",0,0,".",".",".",0,".",".",".",".",".",".",0,".",".",".",".",".",0,".",".",".",".",".",0],[3,"p",1,".",".",1,3,".",1,".",".",".",".",".",".",".",3,".",".",".",1,".",3,".",".",".",1,".",".",1,"h",3,0,1,3,1,"h",3,0,1,3,"h",1,0,1],[".",".",".",".",".",".",".",".",".",".",".",".",".",".",".",".",".",".",".",".",2,".",".",".",2,".",".",".",2,".",".",".",0,".",".",".",".",".",0,".",".",".",".",".",2],[".",".",".",".",0,".",".",0,".",".",".",".",".",".",".",".",".",".",".",2,2,".",".",3,".",".",".",3,".",".",".",".",0,".",".",".",".",".",0,".",".",".",".",".",2],[".",".",".",".",2,".",".",2,".",3,".",".",".",".",2,".",".",".",0,".",".",".",".",".",".",".",".",".",".",".",".",".",2,".",".",".",".",".",2,".",".",".",".",".",0],[".",".",".",".",3,".",".",3,".",".",".",".",".",".",".",".",".",".",".",".",".",".",".",".",".",".",".",".",".",".",".",".",3,".",".",".",".",".",3,".",".",".",".",".","."]]],"numberofstrings":6,"notes":["E","B","G","D","A","E","B"],"capo":0,"stringnotes":["E4","B3","G3","D3","A2","E2"],"comments":["Stave 1:","Stave 2:"],"timing":[[null,null,null,null,null,null,null,null,"W","W","W","W","W","W","W","W","W","W","W","W","W","W","W","W","W","W","W","W","W","W","W","W","W","W","W","W","W","W","W","W","W","W","W","W","W","W","W","W","W","W","W"],["W","W","W","W","W","W","W","W","W","W","W",null,"W","W","W","W","W","W","W","W","W","W","W","W","W","W","W","W","W","W",null,"W","W","W","W","W",null,"W","W","W","W",null,"W","W","W"]],"timingvisible":false,"tabcounter":44,"stave":1,"totalstaves":2,"instrument":"6guitar","selectedtuning":"6_standard","version":"13"}

Member for

11 months
Submitted by Josh Hsu on Sat, 2020-10-24 00:14