Sound will begin in 5 seconds

Laging Sa'yo by ID04

Chords
01234567891011121314151617181920212223
E
B
G
D
A
E
B
0 1 2 3 4 5 6 7 8 9 10 11 12 13 14 15 16 17 18 19 20 21 22 23
Song Science #1: How Pros Use 6 Chords to Write Hit Songs
(/) Slide Up  (\) Slide Down  (h) Hammer On  (p) Pull Off  (b) Bend (r) Release (v) Vibrato

Stave 1:

E|--x--x--x--x--x---x--x--x--x--x--x--x--x--x--x---------------------
B|--x--x--x--x--10--x--x--x--x--x--x--x--x--x--x--8p7----------------
G|--x--x--9--x--9---x--7--x--7--x--7--9--x--x--7-------7--9--8--8h9--
D|--x--x--9--x--7---x--7--x--7--x--7--9--x--x--7---------------------
A|--x--x--7--x--x---x--5--x--5--x--5--7--x--x--5---------------------
E|--x--x--x--x--x---x--x--x--x--x--x--x--x--x--x---------------------

Stave 2:

E|------------------------------------------------------------------------
B|--------------------12--12------------------------13--12--15p13---------
G|--11/13--13--13h14----------14--13--14--11h13h14-----------------11/13--
D|------------------------------------------------------------------------
A|------------------------------------------------------------------------
E|------------------------------------------------------------------------

Stave 3:

E|-------------12h14p12--17--17p16--17--16--17--19--20--19b20--17--16--
B|---------12----------------------------------------------------------
G|--13h14--------------------------------------------------------------
D|---------------------------------------------------------------------
A|---------------------------------------------------------------------
E|---------------------------------------------------------------------

Stave 4:

E|--------------------------------------16--17--19--17--16--
B|----------------------14--16--17--19----------------------
G|----------13--14--16--------------------------------------
D|--14--16--------------------------------------------------
A|----------------------------------------------------------
E|----------------------------------------------------------

Stave 5:

E|-----------------19-----------------------------------------------------------------
B|--19--17--19b20------19--17--16--16h17--14h16--12h14--10h12--12/13--13--12----------
G|----------------------------------------------------------------------------14--13--
D|------------------------------------------------------------------------------------
A|------------------------------------------------------------------------------------
E|------------------------------------------------------------------------------------

Stave 6:

E|---------------------------------------------------------19--19/20\19--17--19p17--16--
B|------------------------------------16--16h17--16h17/19-------------------------------
G|--13h14--16--14--13-------------16----------------------------------------------------
D|---------------------14h16--14--------------------------------------------------------
A|--------------------------------------------------------------------------------------
E|--------------------------------------------------------------------------------------

http://www.guitartabcreator.com
Guitar Tab Creator is intended to store guitar tab created through the tool. It currently does not support in-line text editing. Any text you place in here will be lost. If you need to comment on your tab, please use the "Tab Notes" section located below.