Sound will begin in 5 seconds

Freedom by ID04

Chords
01234567891011121314151617181920212223
E
B
G
D
A
E
B
0 1 2 3 4 5 6 7 8 9 10 11 12 13 14 15 16 17 18 19 20 21 22 23
Song Science #1: How Pros Use 6 Chords to Write Hit Songs
(/) Slide Up  (\) Slide Down  (h) Hammer On  (p) Pull Off  (b) Bend (r) Release (v) Vibrato

Stave 1:

E|---------------------------|-------------------------------------------------
B|---------------------------|--13----------13----------13----------13---------
G|---------------------------|------12----------12----------12----------12b12--
D|---------------------------|----------10----------10----------10-------------
A|---------------------------|-------------------------------------------------
E|--6h8--6h8--6h8--6h8--6h8--|-------------------------------------------------

Stave 2:

E|-------------------------------------------------|-------------------------------------------------
B|--13----------13----------13----------13--13b13--|--13----------13----------13----------13---------
G|------12----------12----------12-----------------|------12----------12----------12----------12b12--
D|----------10----------10----------10-------------|----------10----------10----------10-------------
A|-------------------------------------------------|-------------------------------------------------
E|-------------------------------------------------|-------------------------------------------------

Stave 3:

E|-------------------------12--13--13/15--
B|-------------12--13--15-----------------
G|--9--10--12-----------------------------
D|----------------------------------------
A|----------------------------------------
E|----------------------------------------

Stave 4:

E|--x--x--x--x--x--x--x--x--x--x--x--x--x--x---------|--x--x--x--x--|--------------------
B|--x--x--x--x--x--x--x--x--x--x--x--x--x--x---------|--x--x--x--x--|--------------------
G|--x--x--x--x--x--x--x--x--x--x--x--x--x--x--5r4r2--|--x--x--x--x--|--------------------
D|--9--x--x--9--x--x--9--x--9--x--x--9--x--x---------|--3--3--3--5--|--3--5--7--9--3--5--
A|--9--x--x--9--x--x--9--x--9--x--x--9--x--x---------|--3--3--3--5--|--3--5--7--9--3--5--
E|--x--x--x--x--x--x--x--x--x--x--x--x--x--x---------|--1--1--1--3--|--1--3--5--7--1--3--

Stave 5:

E|-------------------------------------------------
B|--13----------13----------13----------13---------
G|------12----------12----------12----------12b12--
D|----------10----------10----------10-------------
A|-------------------------------------------------
E|-------------------------------------------------

Stave 6:

E|--------------------------------------------------15--
B|--13----------13----------13----------13--12--13------
G|------12----------12----------12----------------------
D|----------10----------10----------10------------------
A|------------------------------------------------------
E|------------------------------------------------------

Stave 7:

E|---------------------------------------
B|---------------------------------------
G|---------------------------------------
D|--10--5--3-----------------2--3--5-----
A|--10--5--3--------2--3--5-----------3--
E|--8---7--1--3--5-----------------------

Stave 8:

E|---------15------15------15----------------------------------------|--
B|--15b15------15------13------12------12--13--12--13--13/15--15b15--|--
G|---------------------------------14--------------------------------|--
D|-------------------------------------------------------------------|--
A|-------------------------------------------------------------------|--
E|-------------------------------------------------------------------|--

Stave 9:

E|--------------------------|--------------------------|--20--17--15--20--17--15--20--17--15--20--17--15--
B|--18--17--15--18--17--15--|--20--17--15--20--17--15--|--------------------------------------------------
G|--------------------------|--------------------------|--------------------------------------------------
D|--------------------------|--------------------------|--------------------------------------------------
A|--------------------------|--------------------------|--------------------------------------------------
E|--------------------------|--------------------------|--------------------------------------------------

Stave 10:

E|--17--17--17--|--17--17--17--|--20--17--
B|--------------|--------------|----------
G|--------------|--------------|----------
D|--------------|--------------|----------
A|--------------|--------------|----------
E|--------------|--------------|----------

http://www.guitartabcreator.com
Guitar Tab Creator is intended to store guitar tab created through the tool. It currently does not support in-line text editing. Any text you place in here will be lost. If you need to comment on your tab, please use the "Tab Notes" section located below.