Sound will begin in 5 seconds

Wise Old Joe (118 bpm)*************

Chords
01234567891011121314151617181920212223
E
B
G
D
A
E
B
0 1 2 3 4 5 6 7 8 9 10 11 12 13 14 15 16 17 18 19 20 21 22 23
Song Science #1: How Pros Use 6 Chords to Write Hit Songs
(/) Slide Up  (\) Slide Down  (h) Hammer On  (p) Pull Off  (b) Bend (r) Release (v) Vibrato

Stave 1:

E|--------------------------------------------------------
B|--1--3--1-----1--------1--3--3--3--5--3-----------1--3--
G|-----------------------------5--5--------0--------------
D|--2--------2-----2--2--2--2--5--5-----------2--2--2--2--
A|--3--------------2--2--2--2-----------------2--2--2--2--
E|--------------------------------------------------------

Stave 2:

E|--3--5--------2--3--------3--5--------------------3--5--------2--3--------3--5--------------------
B|--------3--1--1--1--1--1--------3--3--5--3-----3--------3--1--1--1--------------3--3--5--3--1-----
G|-----------2--2--2--2--2-----------4-----------------------2--2--2--1--1-----------4--------2-----
D|-----------2--2--2--2--2-----------4--------4--------------2--2--2--2--2-----------4--------2--2--
A|--2-----------------------2-----------------------2-----------------2--2--2--------------------2--
E|--3-----------------------3-----------------------3-----------------------3-----------------------

Stave 3:

E|--3--5-----------------
B|--------3--3--5--3--2--
G|-----------4-----------
D|-----------4--------2--
A|--2--------------------
E|--3--------------------

Stave 4:

E|--------------------------------------------------------------------------------------------------
B|-----3--1--0-----1-----1--3--5--3--------3-----3-----3--1--0-----1-----3--5--7--5--------5--3--2--
G|--2-----------------------2-----------2-----------2-----------------------4-----------4-----------
D|--2-----------------------4--------5--------5-----2-----------------------6--------7--------------
A|--------------3-----3-----------------------------------------3-----5-----------------------------
E|--------------------------------------------------------------------------------------------------

Stave 5:

E|-----------------------------------------------------------------------------------------------
B|--3--------3--------3--1--------1--------1--3--3--------3--------5--1--------1-----------------
G|--4-----4-----4-----4--2-----2-----2-----2--4--4-----4-----4-----7--2-----2-----2--------------
D|--4--4-----------4--4--2--2-----------2--2--4--4--4-----------4--7--2--2-----------2-----------
A|--------------------------------------------------------------------------------------3--2--0--
E|-----------------------------------------------------------------------------------------------

Stave 6:

E|-----------------3--0--------------------------------3--0--------------
B|--------------1--------3--1-----------------------1--------3--1--------
G|-----------2--2--------------4-----------------2--2--------------4-----
D|--2--0--3-----------------------0--2--2--0--3-----------------------0--
A|--2-----------------------------------2--------------------------------
E|-----------------------------------------------------------------------

Stave 7:

E|-----------------3--0--------------------------------------
B|--------------1--------3--1-----------------------1--3--3--
G|-----------2--2--------------4-----------------2--2--5--5--
D|-----0--3-----------------------0--2--2--0--3--------4--4--
A|--------------------------------------2--------------5--5--
E|-----------------------------------------------------------

Stave 8:

E|-----------------------------------------------
B|-----------------------------------------------
G|-----------------------------------------------
D|-----------4--5--5-----------7--9--9-----------
A|--2--3--3-----------2--3--5-----------7--5--4--
E|-----------------------------------------------

Stave 9:

E|--------------------------------------------
B|--------------------------------------------
G|--------------------------------------------
D|--------------------------------------------
A|--2--2--2--0--0--5--2--2--5--2--2--3--2--0--
E|--------------------------------------------

Stave 10:

E|--------------------------------------------------------
B|--------------------------------------------------------
G|--------------------------------------------------------
D|--5--7--0--0-----4--5--------5--7--0--0--0--1--0-----0--
A|--------------3--------7--7-----------------------2-----
E|--------------------------------------------------------

Stave 11:

E|-----------------------------------------------------------------
B|-----------------------------------------------------------------
G|-----------------------------------------------------------------
D|-----7--0--0-----4--5--------5--7--0--0--------------------7--7--
A|--------------3--------7--7--------------5--7--5--3--2--3--------
E|-----------------------------------------------------------------

http://www.guitartabcreator.com
Guitar Tab Creator is intended to store guitar tab created through the tool. It currently does not support in-line text editing. Any text you place in here will be lost. If you need to comment on your tab, please use the "Tab Notes" section located below.