Sound will begin in 5 seconds

White Dress (On EP) do with capo on 2nd fret 120 bpm (verse 130 bpm)

Chords
01234567891011121314151617181920212223
E
B
G
D
A
E
B
0 1 2 3 4 5 6 7 8 9 10 11 12 13 14 15 16 17 18 19 20 21 22 23
Song Science #1: How Pros Use 6 Chords to Write Hit Songs
(/) Slide Up  (\) Slide Down  (h) Hammer On  (p) Pull Off  (b) Bend (r) Release (v) Vibrato

Stave 1:

E|--------------------------------------------------------3--------3-----3--------3--------3-----3-----
B|--------3--------3-----3--------3--------3-----3-----3--------3--------------3--------3--------------
G|-----4--------4--------------4--------4-----------3--------3--------3-----3--------3--------3--------
D|--5--------5--------5-----5--------5--------5-----------------------------------------------------5--
A|-----------------------------------------------------------------------------------------------------
E|-----------------------------------------------------------------------------------------------------

Stave 2:

E|-----------------------------------------------------3--------3-----5--------3--------3-----6--
B|-----3--------3-----3--------3--------3-----3-----3--------3--------------3--------3-----------
G|--4--------4--------------4--------4-----------3--------3--------3-----3--------3--------3-----
D|--------5--------5-----5--------5--------5-----------------------------------------------------
A|-----------------------------------------------------------------------------------------------
E|-----------------------------------------------------------------------------------------------

Stave 3:

E|--------------------------------------------------------------------------------------------------
B|--------3--------3-----3--------2--------2-----2--------1--------1-----1--------0--------0-----0--
G|-----3--------3--------------2--------2--------------1--------1--------------0--------0-----------
D|--3--------3--------3-----2--------2--------2-----1--------1--------1-----0--------0--------0-----
A|--------------------------------------------------------------------------------------------------
E|--------------------------------------------------------------------------------------------------

Stave 4:

E|--------------------------------------------------------------------------3--
B|--------3--------3-----3--------2--------2-----2--------1--------1-----1--3--
G|-----3--------3--------------2--------2--------------1--------1-----------3--
D|--3--------3--------3-----2--------2--------2-----1--------1--------1-----5--
A|--------------------------------------------------------------------------5--
E|--------------------------------------------------------------------------3--

Stave 5:

E|-----------------------------------------------------------------------------------------------
B|--------3-----5-----6-----5-----3--------3-----5--8--6--5--3--------3-----5-----6-----5-----3--
G|-----------------------------------------------------------------------------------------------
D|--3--5-----5-----5-----5-----5-----3--5-----5-----------------3--5-----3-----3-----3-----3-----
A|-----------------------------------------------------------------------------------------------
E|-----------------------------------------------------------------------------------------------

Stave 6:

E|--------------------------
B|--------3-----5--8--6--8--
G|--------------------------
D|--3--5-----3--------------
A|--------------------------
E|--------------------------

Stave 7:

E|---------------------------------------------------------------------
B|--------3-----3--------5-----5--------5-----5------------------------
G|---------------------------------------------------------------------
D|--3--5-----5-----5--7-----7-----7--8-----8-----7--8--10--8--7--5--3--
A|---------------------------------------------------------------------
E|---------------------------------------------------------------------

Stave 8:

E|--------------------------------------------------------------------------------------------------------
B|--------3-----------3-----------5-----------5-----------2-----------2-----------2-----------2-----------
G|-----4-----4-----4-----4-----4-----4-----4-----4-----3-----3-----3-----3-----3-----3-----3-----3-----2--
D|--5-----------5-----------5-----------5-----------5-----------5-----------4-----------4-----------3-----
A|--------------------------------------------------------------------------------------------------------
E|--------------------------------------------------------------------------------------------------------

Stave 9:

E|-----------------------------------------------------------------------------------------------------
B|--1-----------1-----------1-----------1-----------1-----------1-----------0-----------3--5--6--5--3--
G|-----2-----2-----2-----2-----2-----2-----2-----2-----2-----2-----2-----0-----0-----0-----------------
D|--------3-----------0-----------0-----------2-----------2-----------0-----------0--------------------
A|-----------------------------------------------------------------------------------------------------
E|-----------------------------------------------------------------------------------------------------

Stave 10:

E|-----3--3--
B|--0--3--3--
G|-----4--4--
D|-----5--5--
A|-----5--5--
E|-----3--3--

Stave 11:

E|--------0--2--3---------
B|-----2--0---------------
G|-----3--0--------8--10--
D|-----4--2---------------
A|------------------------
E|------------------------

Stave 12:

E|---------------------------------------------------------------------------------------------------
B|---------------------------------------------------------------------------------------------------
G|--------7--------7--------10--------10--------7--------10--------10--------------------------------
D|--5--5-----5--5-----8--8------8--8------5--5-----8--8------8--8------3--2--1--0--0--3--2--1--5--5--
A|---------------------------------------------------------------------------------------------------
E|---------------------------------------------------------------------------------------------------

Stave 13:

E|---------------------------------------------------------------------
B|---------------------------------------------------------------------
G|---------------------------------------------------------------------
D|--5--7--5--7--5--7--5--7--5--7--7--9--9--10--9--10--12--10--9--7--5--
A|---------------------------------------------------------------------
E|---------------------------------------------------------------------

http://www.guitartabcreator.com
Guitar Tab Creator is intended to store guitar tab created through the tool. It currently does not support in-line text editing. Any text you place in here will be lost. If you need to comment on your tab, please use the "Tab Notes" section located below.