Sound will begin in 5 seconds

trick up your sleeve (on EP)

Chords
01234567891011121314151617181920212223
E
B
G
D
A
E
B
0 1 2 3 4 5 6 7 8 9 10 11 12 13 14 15 16 17 18 19 20 21 22 23
Song Science #1: How Pros Use 6 Chords to Write Hit Songs
(/) Slide Up  (\) Slide Down  (h) Hammer On  (p) Pull Off  (b) Bend (r) Release (v) Vibrato

(W|WW) Whole (H|HH) Half (Q|QQ) Quarter (E|EE) 8th (S|SS) 16th (T|TT) 32nd (X|XX) 64th

Stave 1:
t: W W W W W W W W W W W W W W W W W
E|-----5--4--4--2--4-----------2-----------2-----------
B|--5-----5--5--2-----2--2--2--------------------------
G|--6-----6--6--2-----2--2--2-----1--1--1-----1--2--4--
D|--7-----------------------------2--2--2-----2--4--6--
A|--------------------------------2--2--2-----2--4--5--
E|-----------------------------------------------------

Stave 2:
t: W W W W W W W W W W W
E|--------------------------2--3--2--
B|--5--5--2-----5--5--2-----3-----3--
G|--6--5--2-----6--5--2-----2-----2--
D|--6--4--2--2--6--4--2--2-----------
A|-----5-----2-----5-----2-----------
E|--5-----2-----5-----2--------------

Stave 3:
t: W W W W W W W W W W W W W W W W W W W W
E|-----5--7--7-----5--4--4-----5--4--2-----2-----2-----------5--
B|--5-----7--7--5-----5--5--5-----5--2--------------------------
G|--6-----7--7--6-----6--6--6-----6--2--1-----1-----1--2--4-----
D|--7-----------7-----------7-----------2-----2-----2--4--6-----
A|--------------------------------------2-----2-----2--4--5-----
E|--------------------------------------------------------------

Stave 4:
t: W W W W W W W W W W W W W W W W
E|-----5--4--4--2--4-----------5--7--4--2--4--------
B|--5-----5--5--2-----2--2--5-----7--5--2-----------
G|--6-----6--6--2-----2--2--6-----7--6--2-----1--1--
D|--7-----------------------7-----------------2--2--
A|--------------------------------------------2--2--
E|--------------------------------------------------

http://www.guitartabcreator.com
Guitar Tab Creator is intended to store guitar tab created through the tool. It currently does not support in-line text editing. Any text you place in here will be lost. If you need to comment on your tab, please use the "Tab Notes" section located below.