Sound will begin in 5 seconds

Sugary (key of D) (on EP) 92 bpm

Chords
01234567891011121314151617181920212223
E
B
G
D
A
E
B
0 1 2 3 4 5 6 7 8 9 10 11 12 13 14 15 16 17 18 19 20 21 22 23
Song Science #1: How Pros Use 6 Chords to Write Hit Songs
(/) Slide Up  (\) Slide Down  (h) Hammer On  (p) Pull Off  (b) Bend (r) Release (v) Vibrato

Stave 1:

E|--5--7-------------7---10--7---------------5--3--2-----2--2--------2-----2--2--
B|--5-----7--10--10--8----------8------------5--------3--3--3-----------3--3--3--
G|--4----------------9-------------11--9--7--4-----------4--4-----4--------2--2--
D|-------------------10----------------------------------5--5--5-----------------
A|-------------------------------------------------------------------------------
E|--5----------------------------------------5-----------------------------------

Stave 2:

E|--2--3--5--3--2-----2--5--7--8--7--5--2--3--5--3--2-----2--2--
B|--3--------------3--3-----------------3--------------3--3--3--
G|--2-----------------4-----------------2-----------------4--2--
D|--------------------5-----------------------------------5-----
A|--------------------------------------------------------------
E|--------------------------------------------------------------

Stave 3:

E|-----2--------------------0--------2-----2-----------------------2-----------
B|--------3--2--0--0--------------------------3--2--5--3--2-----------------3--
G|-----------------------0--------0-----------------------------0--------0-----
D|-----------------------------------------------------------------------------
A|-----------------------------------------------------------------------------
E|--3-----------------2--------2--------3--------------------2--------2--------

Stave 4:

E|--------------------------------------------------------------
B|--------------------------------------------------------------
G|-----------------------------7-----------------5--------------
D|--7--9--7--7--7--7--7--9--9-----0--0--7--5--4-----4--4--0--0--
A|--------------------------------------------------------------
E|--------------------------------------------------------------

Stave 5:

E|--------------------------------------
B|--------------------------------------
G|--------------------------7--5--4--2--
D|--0--4--7--5--4--0--4--5--------------
A|--------------------------------------
E|--------------------------------------

Stave 6:

E|-----------------------------------------------------------------------------------------------------
B|-----------------------------------------------------------------------------------------------------
G|-----------------------------------------------------------------------------------------------------
D|-----------------------------------------------------------------------------------------------------
A|-----------------5--5--5--5--------------5--5--5--5--7--7--7--7--5--5--5--5--7--7--7--7--5--5--5--5--
E|-----3--3--3--3--------------3--3--3--3--------------------------------------------------------------

Stave 7:

E|-----
B|-----
G|-----
D|-----
A|-----
E|-----

Stave 8:

E|-----
B|-----
G|-----
D|-----
A|-----
E|-----

http://www.guitartabcreator.com
Guitar Tab Creator is intended to store guitar tab created through the tool. It currently does not support in-line text editing. Any text you place in here will be lost. If you need to comment on your tab, please use the "Tab Notes" section located below.