Sound will begin in 5 seconds

Space Jam in D

Chords
01234567891011121314151617181920212223
E
B
G
D
A
E
B
0 1 2 3 4 5 6 7 8 9 10 11 12 13 14 15 16 17 18 19 20 21 22 23
Song Science #1: How Pros Use 6 Chords to Write Hit Songs
(/) Slide Up  (\) Slide Down  (h) Hammer On  (p) Pull Off  (b) Bend (r) Release (v) Vibrato

Stave 1:

E|--------------------9-------------------------------------------------------------
B|-----12-------------10-----------------10-----12-------------8-----------------8--
G|---------10--9--10--9-----------9--12-------------10--9--12--7----------7--10-----
D|--9-----------------11------11-------------9-----------------8-------8------------
A|--------------------12--12-----------------------------------10--10---------------
E|----------------------------------------------------------------------------------

Stave 2:

E|--_---------------------5-----------------
B|--8----------------------6--------------6--
G|--7----------7--5--7--8--5--------5--8-----
D|--8-------8--------------7-----7-----------
A|--10--10-----------------8--8--------------
E|--_---------------------------------------

Stave 3:

E|-----------7------------------------7---------------7-------------------------------------------------
B|--------8-----8------------------8-----8---------------8------------------------------------------10--
G|-----9-----------9------9-----9-----------9---------------9------9--7--9--11--12--14--12--11--12--9---
D|--7-----------------10-----7-----------------10--7-----------10-----------------------------------10--
A|--------------------------------------------------------------------------------------------------12--
E|------------------------------------------------------------------------------------------------------

http://www.guitartabcreator.com
Guitar Tab Creator is intended to store guitar tab created through the tool. It currently does not support in-line text editing. Any text you place in here will be lost. If you need to comment on your tab, please use the "Tab Notes" section located below.