Sound will begin in 5 seconds

Omni-Prog (key of E) (On EP)110 bpm

Chords
01234567891011121314151617181920212223
E
B
G
D
A
E
B
0 1 2 3 4 5 6 7 8 9 10 11 12 13 14 15 16 17 18 19 20 21 22 23
Song Science #1: How Pros Use 6 Chords to Write Hit Songs
(/) Slide Up  (\) Slide Down  (h) Hammer On  (p) Pull Off  (b) Bend (r) Release (v) Vibrato

Stave 1:

E|--------------------------------------------------------------------
B|-----------7-----------------0-----------------2-----------------0--
G|--------8-----8-----------3-----3-----------2-----2-----------3-----
D|-----7-----------7-----4-----------4-----2-----------2-----4--------
A|--6-----------------2-----------------0-----------------2-----------
E|--------------------------------------------------------------------

Stave 2:

E|--------------------------------------------------------------------------------------------------
B|-----------2-----------------0-----------------2-----------------------2-----------------0--------
G|--------2-----2-----------1-----1-----------2-----2-----1--1--------2-----2-----------1-----1-----
D|-----2-----------2-----2-----------2-----2-----------2--2--2-----2-----------2-----2-----------2--
A|--0-----------------2-----------------0-----------------2--2--0-----------------2-----------------
E|--------------------------------------------------------------------------------------------------

Stave 3:

E|--------------------------
B|-----------2--4--5--5--5--
G|--------2-----------6--6--
D|-----2--------------6--6--
A|--0-----------------------
E|--------------------------

Stave 4:

E|-----7--------7-----5--------5--0--7--------7--5--3--2--3--2--0--0--
B|-----5-----------5--0--------------5-----------------0--------------
G|-----6-----6--------6-----6--------6-----6-----------2--------------
D|-----6--6-----------6--6-----------6--6-----------------------------
A|--------------------------------------------------------------------
E|--------------------------------------------------------------------

Stave 5:

E|--2--3--2--0--------2--3--0--0--2--3--2--0-----------
B|--3-----------3-----------------3-----------5--7--8--
G|--2-----------------------------2--------------------
D|-----------------2-----------------------------------
A|-----------------2-----------------------------------
E|-----------------------------------------------------

Stave 6:

E|--3--5--3--2--0--2--3--2--0--0--3--5--3--2--0--------
B|--5--------------3--------------5--------------------
G|--4--------------2--------------4--------------------
D|-----------------------------------------------2--2--
A|-----------------------------------------------2--2--
E|-----------------------------------------------------

Stave 7:

E|--------------------------------------------------------------------------------------------------
B|-----------7-----------3-----------3-----------0-----------7-----------3-----------5-----------0--
G|--------6-----------5-----------0-----------0-----------6-----------5-----------5-----------3-----
D|-----6-----------4-----------2-----------2-----------6-----------4-----------5-----------3--------
A|--7-----------5-----------3-----------2-----------7-----------5-----------------------------------
E|--------------------------------------------------------------------------5-----------3-----------

Stave 8:

E|--------------------------------------------------------------------------------------------------------
B|-----------2-----------------0-----------------4-----------------5-----------2-----------------0--------
G|--------1-----1-----------1-----1-----------1-----1-----------1-----------1-----1-----------1-----1-----
D|-----2-----------2-----2-----------2-----2-----------2-----2-----------2-----------2-----2-----------2--
A|--0-----------------2-----------------2-----------------2-----------0-----------------2-----------------
E|--------------------------------------------------------------------------------------------------------

Stave 9:

E|-----------------------------------------------------------------------------0--------------------
B|-----------0-----------------0-----------2-----------------4-----------------------------------2--
G|--------1-----1-----------1-----------1-----1-----------1-----1-----------1-----1-----------1-----
D|-----2-----------2-----2-----------2-----------2-----2-----------2-----2-----------2-----2--------
A|--------------------------------0-----------------0-----------------0-----------------0-----------
E|--4-----------------2-----------------------------------------------------------------------------

Stave 10:

E|-----------------------------------------------0--------------
B|-----------2-----------------4-----------------------------0--
G|--------1-----1-----------1-----1-----------1-----------1-----
D|-----2-----------2-----2-----------2-----2-----------2--------
A|--0-----------------0-----------------0-----------0-----------
E|--------------------------------------------------------------

Stave 11:

E|--------------------------------
B|--------------------------------
G|--------------------------------
D|--------------4--------4--------
A|--6--6--2--2-----0--0-----2--2--
E|--------------------------------

Stave 12:

E|-----------------------------------------------------------------------------------
B|-----------------------------------------------------------------------------------
G|-----------------------------------------------------------------------------------
D|--------------------------------------------------------------------------------2--
A|-----0--0--2--2--2--0--0--0--4--5--2--2--2--0--0--0--2--2--2--0--0--0--4--5--2-----
E|-----------------------------------------------------------------------------------

http://www.guitartabcreator.com
Guitar Tab Creator is intended to store guitar tab created through the tool. It currently does not support in-line text editing. Any text you place in here will be lost. If you need to comment on your tab, please use the "Tab Notes" section located below.