Sound will begin in 5 seconds

No need to read your mind (Key of F)***********************************

Chords
01234567891011121314151617181920212223
E
B
G
D
A
E
B
0 1 2 3 4 5 6 7 8 9 10 11 12 13 14 15 16 17 18 19 20 21 22 23
Song Science #1: How Pros Use 6 Chords to Write Hit Songs
(/) Slide Up  (\) Slide Down  (h) Hammer On  (p) Pull Off  (b) Bend (r) Release (v) Vibrato

Stave 1:

E|--------------
B|--5--3--5--8--
G|--6--4--6--7--
D|--5--5--5--7--
A|--4--5--4--5--
E|--------------

Stave 2:

E|--------------------------------------------------------------------
B|-----------5--4--3-----------3--4--5-----------5--6--7-----------8--
G|--------6-----------------4-----------------6-----------------7-----
D|-----5-----------------5-----------------5-----------------7--------
A|--4-----------------5-----------------4-----------------5-----------
E|--------------------------------------------------------------------

Stave 3:

E|-----5--------
B|--6--6--6--6--
G|--5--5--5--5--
D|--7-----7--7--
A|-----------8--
E|--------------

Stave 4:

E|--------------6--------5--------6-----------------------------------
B|--------6--8--------6--------6-----------6--8--6--------6-----------
G|-----5-----------5--------5-----------5--------------5-----------5--
D|--7--------------------------------7--------------7-----------7-----
A|-----------------------------------------------------------8--------
E|--------------------------------------------------------------------

Stave 5:

E|------------------------5--------6--------------------------
B|---------------------6--------6-----------------------------
G|--------5--10--9--5--------5--------------5--10--9--10--10--
D|-----7---------------------------------7--------------------
A|--8---------------------------------8-----------------------
E|------------------------------------------------------------

Stave 6:

E|-----------------------------------------------------3-----------------1--0--
B|-----------2-----------------1-----------1--------------0--------------------
G|--------0-----0-----------0-----------0-----------0--------0--------0--------
D|-----2-----------2-----2-----------2-----------0-----------------0-----------
A|--0-----------------3-----------2--------------------------------------------
E|--------------------------------------------3-----------------1--------------

Stave 7:

E|-----------3--1--
B|--2--1--1-----0--
G|--0-----------0--
D|--2--2--2-----0--
A|-----3--2--2-----
E|-----------3--2--

http://www.guitartabcreator.com
Guitar Tab Creator is intended to store guitar tab created through the tool. It currently does not support in-line text editing. Any text you place in here will be lost. If you need to comment on your tab, please use the "Tab Notes" section located below.