Sound will begin in 5 seconds

Mingus the Dingus (key of D)****** 105 bpm on metronome

Chords
01234567891011121314151617181920212223
E
B
G
D
A
E
B
0 1 2 3 4 5 6 7 8 9 10 11 12 13 14 15 16 17 18 19 20 21 22 23
Song Science #1: How Pros Use 6 Chords to Write Hit Songs
(/) Slide Up  (\) Slide Down  (h) Hammer On  (p) Pull Off  (b) Bend (r) Release (v) Vibrato

Stave 1:

E|--------------------------------------------------------------------------
B|-----------8-----------------6-----------------5-----------------3--5-----
G|--------6-----6-----------5-----5-----------5-----5-----------4-----------
D|-----5-----------5-----4-----------4-----4-----------4-----4--------------
A|--7-----------------5-----------------3-----------------2-----------------
E|--------------------------------------------------------------------------

Stave 2:

E|-----------------
B|--8--5--5--3--5--
G|--6--5--5--4--4--
D|--5--4--4--4--4--
A|--7--5--3--2--2--
E|-----------------

Stave 3:

E|-----------------------------------------
B|-----------------------------------------
G|-----------------------------------------
D|--------5--------4--------4--------4-----
A|--7--7-----5--5-----3--3-----2--2-----5--
E|-----------------------------------------

Stave 4:

E|--------
B|--8-----
G|--6--4--
D|--5--4--
A|--7--5--
E|--------

Stave 5:

E|-----------0--------------------0--7-----------0-----------------------------
B|--------3--------------------5--------------3--------------------5--------3--
G|-----2--------------------7--------------2--------------------7--------5-----
D|--4-----------2--4--5--4--------------4-----------5--4--2--4--------2--------
A|-----------------------------------------------------------------------------
E|-----------------------------------------------------------------------------

Stave 6:

E|-----------------------------------------------------------------------
B|-----------8-----8--------------------------8-----8--------------------
G|--------6--------------9--7-----7--------6--------------9--7-----7-----
D|-----5-----------------------9--------5-----------------------9-----9--
A|--7-----------7-----9--------------7-----------7-----9-----------------
E|-----------------------------------------------------------------------

Stave 7:

E|-----------------------------------------------------------------------
B|-----------8-----8--------------------------8-----8--------------------
G|--------6--------------9--7-----7--------6-----------------4--2--4--2--
D|-----5-----------------------9--------5-----------------4--------------
A|--------------7-----9--------------7-----------7-----5-----------------
E|-----------------------------------------------------------------------

Stave 8:

E|---------------------------------------------------------------------------------------
B|---------------------------------------------------------------------------------------
G|---------------------------------------------------------------------------------------
D|---------------------------------------------------------------------------------------
A|--7--7--10--9--9--7--7--7--7--10--9--9--9--7--7--7--7--10--9--9--7--7--7--7--10--5--7--
E|---------------------------------------------------------------------------------------

Stave 9:

E|---------------------------------------------------------
B|---------------------------------------------------------
G|-----4--4--5--4--4--2--4--4--5--4--4--2------------------
D|---------------------------------------------------------
A|-----------------------------------------2--5--7--8--10--
E|---------------------------------------------------------

Stave 10:

E|--------------------------------------
B|--------------------------------------
G|--------------------------------------
D|--5--5--5--7--7--7--5--5--5--7--9--5--
A|--------------------------------------
E|--------------------------------------

http://www.guitartabcreator.com
Guitar Tab Creator is intended to store guitar tab created through the tool. It currently does not support in-line text editing. Any text you place in here will be lost. If you need to comment on your tab, please use the "Tab Notes" section located below.