Sound will begin in 5 seconds

Manatee song (key of A)************

Chords
01234567891011121314151617181920212223
E
B
G
D
A
E
B
0 1 2 3 4 5 6 7 8 9 10 11 12 13 14 15 16 17 18 19 20 21 22 23
Song Science #1: How Pros Use 6 Chords to Write Hit Songs
(/) Slide Up  (\) Slide Down  (h) Hammer On  (p) Pull Off  (b) Bend (r) Release (v) Vibrato

Stave 1:

E|--4--------4--------------4-----------------4--------4--------------4--------------------
B|--5-----------5--------------5--5--7--3--5--5-----------5-----------------5--5--7--3--5--
G|--6-----6--------6--------------4--4--4--6--6-----6--------6-----------7-----4--4--1--3--
D|--6--6-----------------6--------6--6--5--7--6--6-----------------6-----------6--6--2--4--
A|--------------------7-----------------5--7--------------------7--------------------2--4--
E|-----------------------------------------------------------------------------------------

Stave 2:

E|--2-----------------------------------------------2-----------------------------------------2--2--
B|--4--------4--------2--------2-----------3--5--5--4--------4--------2--------2-----------3--2--5--
G|--3-----3-----3-----1-----1-----1-----1--1--3--3--3-----3-----3-----1-----1-----1-----1--1--3--3--
D|--4--4-----------4--2--2-----------2--2--2--4--4--4--4-----------4--2--2-----------2--2--2--2--2--
A|--2-----------------------------------2--2--4--4--2-----------------------------------2--2--4--4--
E|--2-----------------------------------------------2-----------------------------------------2--2--

Stave 3:

E|--2-----------------4-----------------6--------4--4--
B|--4--------4--------5--------5--------7--7--6--5--5--
G|--3-----3-----3-----6-----6-----6-----8--8--7--6--6--
D|--4--4-----------4--6--6-----------6--8--8--7--6--6--
A|--2-----------------4-----------------6--6--5--4--4--
E|--2-----------------4-----------------6--6--5--4--4--

Stave 4:

E|--2--------------4-----------------6--6-----4--------
B|--4--------4-----5--------5--------7--7--6--5--------
G|--3-----3-----3--6-----6-----6-----8--8--7--6--------
D|--4--4-----------6--6-----------6--8--8--7--6--------
A|--2--------------4-----------------6--6--5--4--4--2--
E|--2--------------4-----------------6--6--5--4--------

Stave 5:

E|-----------------------------------
B|-----3-----------5-----3--3--2-----
G|--1--1--------3-----3--2--2--1--1--
D|--2--2-----4-----------4--4--3--2--
A|--2--2--4--------------3--3--2--2--
E|-----------------------------------

http://www.guitartabcreator.com
Guitar Tab Creator is intended to store guitar tab created through the tool. It currently does not support in-line text editing. Any text you place in here will be lost. If you need to comment on your tab, please use the "Tab Notes" section located below.