Sound will begin in 5 seconds

manatee (Key of F) possibly merge with #24?

Chords
01234567891011121314151617181920212223
E
B
G
D
A
E
B
0 1 2 3 4 5 6 7 8 9 10 11 12 13 14 15 16 17 18 19 20 21 22 23
Song Science #1: How Pros Use 6 Chords to Write Hit Songs
(/) Slide Up  (\) Slide Down  (h) Hammer On  (p) Pull Off  (b) Bend (r) Release (v) Vibrato

Stave 1:

E|--------------------------------------------5--3--------------------------------------------------------
B|--1-----------2--4--5--5--4--2--3-----------6--4-----1-----------2--4--2--5--2--4--2--0--3--------------
G|--2--1--3--4--------------------2--------2--7--5--1-----1--3--4--------------------------2--------2--5--
D|--3-----------------------------3-----3--------------2-----------------------------------3-----3--------
A|--------------------------------5--5--------------2--3-----------------------------------5--5-----------
E|--------------------------------------------------------------------------------------------------------

Stave 2:

E|--5--3-----
B|--6--4-----
G|--7--5--1--
D|----------
A|-------2--
E|----------

Stave 3:

E|-------------------------------------------------------
B|----1--------2--1-----------1--------2--1--------2--1--
G|----1-----1--------1--0--1-----------------0-----------
D|----1--1--------------------2-----2-----------1--------
A|----------------------------3--3-----------------------
E|-------------------------------------------------------

Stave 4:

E|-----------------------------------------------------------
B|-----------------------------------------------------------
G|--------------5--7--7--5-----------3--5--5--3--------------
D|--------5--7--------------7-----5--------------5--3--------
A|-----7-----------------------3-----------------------5--3--
E|--5--------------------------------------------------------

http://www.guitartabcreator.com
Guitar Tab Creator is intended to store guitar tab created through the tool. It currently does not support in-line text editing. Any text you place in here will be lost. If you need to comment on your tab, please use the "Tab Notes" section located below.