Sound will begin in 5 seconds

Lets get medieval (key of G) (On EP) 100 bpm

Chords
01234567891011121314151617181920212223
E
B
G
D
A
E
B
0 1 2 3 4 5 6 7 8 9 10 11 12 13 14 15 16 17 18 19 20 21 22 23
Song Science #1: How Pros Use 6 Chords to Write Hit Songs
(/) Slide Up  (\) Slide Down  (h) Hammer On  (p) Pull Off  (b) Bend (r) Release (v) Vibrato

Stave 1:

E|-----2--3-----3--2-----3--5--3--2-----------2--3-----3--2-----3--5--3--2-----0--
B|-----------1--------1--------------3--3-----------1--------1--------------3-----
G|-----------2--------------------------4-----------2-----------------------------
D|--2--------2--------2-----------------4--2--------2--------2--------------------
A|--2-----------------3--------------------2-----------------3--------------------
E|--------------------------------------------------------------------------------

Stave 2:

E|--0-----------------2--3--------0-----------------2--3--------0--------------------3--2--------2-----
B|--0--5--3-----------------1-----0--5--3-----------------1-----0--5--3--------------3-----3-----3--3--
G|--4-----------------------2-----4--------4--2-----------2-----4-----------------------------4--4--4--
D|--4--------4--2--2--------2--2--4--------------2--------2--2--4--------4--2--4--5--------------4--4--
A|-----------------2-----------2-----------------2-----------2-----------------------2-----------------
E|-----------------------------------------------------------------------------------3-----------------

Stave 3:

E|--2--2--2--3--2--0--0--------3--------2--3--
B|--3--3--3--3--3--3--3--1--1--1--------------
G|--4--4--4--2--2--2--2-----------------------
D|--4--4--4--------------2--2--2--2--2--2--2--
A|-----------------------3--3--3--2--2--2--2--
E|--------------------------------------------

Stave 4:

E|--------------------3-----2--3-----------------2-----2--3--
B|-----3--3--3--3--1--------------3--3--3--3--5--------------
G|-----4--4--3--3--2--------------4--4--3--3--5--------------
D|-----4--4--2--2--2-----2--------4--4--2--2--4-----2--------
A|-----------3--3--------2--------------3--3--------2--------
E|-----3--3-----------------------3--3-----------------------

Stave 5:

E|--------------------------------------------------------------------------------------------------------
B|-----------1--------1--1-----------3--------3--2--1--1-----------1--------1--1-----------0--------3--3--
G|--------2-----2-----2--2--------3-----3-----3--2--1--1--------3-----3-----3--3--------2-----2-----2--2--
D|-----2-----------2--2--2-----3-----------3--3--2--1--1-----2-----------2--2--2-----1-----------1--1--1--
A|--------------------------------------------------------3-----------------3--3--2-----------------2--2--
E|--2-----------------2--2--3-----------------------------------------------------------------------------

Stave 6:

E|--------------------------------------------------------------------------------------------------------
B|-----------1--------1--1-----------3--------3--2--1--1-----------1--------1--1-----------3--------5--5--
G|--------2-----2-----2--2--------3-----3-----3--2--1--1--------3-----3-----3--3--------5-----5-----7--7--
D|-----2-----------2--2--2-----3-----------3--3--2--1--1-----2-----------2--2--2-----4-----------4--6--6--
A|--------------------------------------------------------3-----------------3--3--5-----------------7--7--
E|--2-----------------2--2--3-----------------------------------------------------------------------------

Stave 7:

E|--------------------
B|--------------------
G|--------------------
D|-----2--------------
A|--2-----0--2--------
E|--------------3-----

Stave 8:

E|-----------------------------------------
B|-----------------------------------------
G|-----------------------------------------
D|--2--4--5--2--5--4--2--5--7--5--4--0--2--
A|-----------------------------------------
E|-----------------------------------------

Stave 9:

E|-----------------------------------------------
B|-----------------------------------------------
G|-----------------------------------------------
D|-----------------------------------------------
A|--------------5--4--3--3--3--3--2--2--2--------
E|--2--2--2--3-----------------------------2--3--

Stave 10:

E|-----------------------------------------
B|-----------------------------------------
G|-----------------------------------------
D|-----------------------------------------
A|--------------5--4--3--3--3--3--5--7--7--
E|--2--2--2--3-----------------------------

Stave 11:

E|--------------------------------------------------------
B|--------------------------------------------------------
G|--------------------------------------------------------
D|-----------------5-----4--5--2-----------------5-----4--
A|--------3--3--0-----2-----------------3--3--0-----2-----
E|--3--3--------------------------3--3--------------------

http://www.guitartabcreator.com
Guitar Tab Creator is intended to store guitar tab created through the tool. It currently does not support in-line text editing. Any text you place in here will be lost. If you need to comment on your tab, please use the "Tab Notes" section located below.