Sound will begin in 5 seconds

lazer dan (Verse Key of D) Chorus (Key of G minor or Bb)

Chords
01234567891011121314151617181920212223
E
B
G
D
A
E
B
0 1 2 3 4 5 6 7 8 9 10 11 12 13 14 15 16 17 18 19 20 21 22 23
Song Science #1: How Pros Use 6 Chords to Write Hit Songs
(/) Slide Up  (\) Slide Down  (h) Hammer On  (p) Pull Off  (b) Bend (r) Release (v) Vibrato

Stave 1:

E|-----5-----------------------------------------5--------------7---
B|--------8--7--5--7--5--------------------5--------8--5--7--8--8---
G|--5-----------------4--------4--7--4--7--4--5-----------------7---
D|--------------------5-----5--------------5--------------------9---
A|--------------------7--7-----------------7--------------------10--
E|------------------------------------------------------------------

Stave 2:

E|--_-----------------------6-----------------6-----------------------4-----------------------
B|--8--------------------8---7-----------------7--6-----------------6--5-----------------5-----
G|--7----------7--10--7--7---6--------6--9--6--6--5--------5--8--5--5--4--------4--7--4-----4--
D|--8-------8------------8---8-----8-----------8--6-----6-----------6--6-----6-----------------
A|--10--10---------------10--9--9--------------9--8--8--------------8--7--7--------------------
E|--_-----------------------------------------------------------------------------------------

http://www.guitartabcreator.com
Guitar Tab Creator is intended to store guitar tab created through the tool. It currently does not support in-line text editing. Any text you place in here will be lost. If you need to comment on your tab, please use the "Tab Notes" section located below.