Sound will begin in 5 seconds

Latin Groove (key of D)*************

Chords
01234567891011121314151617181920212223
E
B
G
D
A
E
B
0 1 2 3 4 5 6 7 8 9 10 11 12 13 14 15 16 17 18 19 20 21 22 23
Song Science #1: How Pros Use 6 Chords to Write Hit Songs
(/) Slide Up  (\) Slide Down  (h) Hammer On  (p) Pull Off  (b) Bend (r) Release (v) Vibrato

Stave 1:

E|--------------------------------------------------------------
B|-----8--------8-----8-----------------------0--------------0--
G|--------6--------------6-----------------2-----2--------2-----
D|-----------5--------------5--3--2-----2--------------2--------
A|--7--------------7-----------------3--------------2-----------
E|--------------------------------------------------------------

Stave 2:

E|-----------7---5--
B|--8--------8---7--
G|--6--2--2--9---8--
D|--5--2--2--10-----
A|--7--3--2---------
E|------------------

Stave 3:

E|---------------------------------7------------5-----------
B|-----8--------8-----8--------10-----8------------7-----5--
G|--------6--------------6---------------9------------8-----
D|-----------5--------------5---------------10--------------
A|--7--------------7----------------------------------------
E|----------------------------------------------------------

Stave 4:

E|-----------0--------------------0--7-----------0-----------------------------
B|--------3--------------------5--------------3--------------------5--------3--
G|-----2--------------------7--------------2--------------------7--------5-----
D|--4-----------2--4--5--4--------------4-----------5--4--2--4--------2--------
A|-----------------------------------------------------------------------------
E|-----------------------------------------------------------------------------

Stave 5:

E|-----------
B|--3--5--3--
G|--2--7--5--
D|--4--4--2--
A|-----------
E|-----------

http://www.guitartabcreator.com
Guitar Tab Creator is intended to store guitar tab created through the tool. It currently does not support in-line text editing. Any text you place in here will be lost. If you need to comment on your tab, please use the "Tab Notes" section located below.