Sound will begin in 5 seconds

Indian song (Key of D capo on 2nd fret)

Chords
01234567891011121314151617181920212223
E
B
G
D
A
E
B
0 1 2 3 4 5 6 7 8 9 10 11 12 13 14 15 16 17 18 19 20 21 22 23
Song Science #1: How Pros Use 6 Chords to Write Hit Songs
(/) Slide Up  (\) Slide Down  (h) Hammer On  (p) Pull Off  (b) Bend (r) Release (v) Vibrato

Stave 1:

E|--2--2--2--2--5--2--------------2--2--2--2--2--2--2--
B|--2--2--2--2--5-----2-----------2--2--2--2--2--2--2--
G|--2--2--2--2--4--------2--------4--6--7--7--4--2--2--
D|--4--4--4--4--5-----------2--4--2--2--2--2--2--4--4--
A|--2--2--2--2--------------------4--5--7--7--4--2--2--
E|--2--2--2--2--------------------2--2--2--2--2--2--2--

Stave 2:

E|--5--7------------------5--7----------------
B|--5-----7--10--8--7--2--5-----7--10--7--10--
G|--2---------------------2-------------------
D|--2---------------------2-------------------
A|--4---------------------4-------------------
E|--5---------------------5-------------------

http://www.guitartabcreator.com
Guitar Tab Creator is intended to store guitar tab created through the tool. It currently does not support in-line text editing. Any text you place in here will be lost. If you need to comment on your tab, please use the "Tab Notes" section located below.