Sound will begin in 5 seconds

fighting machine key of G Combine with jazz riff in G (on EP)

Chords
01234567891011121314151617181920212223
E
B
G
D
A
E
B
0 1 2 3 4 5 6 7 8 9 10 11 12 13 14 15 16 17 18 19 20 21 22 23
Song Science #1: How Pros Use 6 Chords to Write Hit Songs
(/) Slide Up  (\) Slide Down  (h) Hammer On  (p) Pull Off  (b) Bend (r) Release (v) Vibrato

Stave 1:

E|-----3-----------------------3--2--------2--2--------
B|--------------3--3--2--2--2--------3-----3-----------
G|--5-----4-----5--3--2--2--2-----------4--4--1--1--1--
D|--5--------5--5--3--2--2--2--------------------2--2--
A|-----------------------------------------------2--2--
E|--5--------------------------------------------------

Stave 2:

E|----0--2--3--2--0-----2-----3--3--0--2--3--2--0--2--------
B|----0-----------------------------0--------------3--------
G|----1--------------1-----1--------1--------------1--1--1--
D|----0--------------2-----2--------0-----------------2--2--
A|----0--------------2-----2--------0-----------------2--2--
E|----0-----------------------------0-----------------------

Stave 3:

E|--2--3--5--3--2-----2--2--0--2--3--5--3--2-----2--0--
B|--3--------------3--3--3--3--3--------------3--3--0--
G|--1-----------------4--2--2--1-----------------4--1--
D|--------------------------------------------------0--
A|--------------------------------------------------0--
E|--------------------------------------------------0--

Stave 4:

E|----3----------------------------5--------------------3--2-----0--
B|-------------3--5b7--8--7--8--8-----7--8--7--5--3--5--------3-----
G|--5-----4----------------------------------------------------------
D|--5--------5-------------------------------------------------------
A|------------------------------------------------------------------
E|--5----------------------------------------------------------------

http://www.guitartabcreator.com
Guitar Tab Creator is intended to store guitar tab created through the tool. It currently does not support in-line text editing. Any text you place in here will be lost. If you need to comment on your tab, please use the "Tab Notes" section located below.