Sound will begin in 5 seconds

Eastern/ Indian riff (Key of D)

Chords
01234567891011121314151617181920212223
E
B
G
D
A
E
B
0 1 2 3 4 5 6 7 8 9 10 11 12 13 14 15 16 17 18 19 20 21 22 23
Song Science #1: How Pros Use 6 Chords to Write Hit Songs
(/) Slide Up  (\) Slide Down  (h) Hammer On  (p) Pull Off  (b) Bend (r) Release (v) Vibrato

Stave 1:

E|--------------------------------------------------------------------
B|--2--3--2--0-----------------------2--3--2--0-----------------------
G|--0-----------3--4-----3--4--6--6--0-----------3--4-----3--4--3--0--
D|--2-----------------2--------------2-----------------2--------------
A|--------------------2--------------------------------2--------------
E|--------------------------------------------------------------------

Stave 2:

E|-------------0--0--------------------------------------------------
B|----2--3--2--0--0--------------------------------------------2--3--
G|----4--4--4--4--4-----------------------------------3--2-----------
D|----4--4--4--4--4-----------2--2--------------------5--4--2--2--2--
A|-------------------1--3--4--2--2--------------------5--4--2--2--2--
E|----------------------------------1--2--4--2--0--0-----------------

Stave 3:

E|-----------------------------------------------------------------
B|--2--3--2--0-----------------------2--3--2--0-----------2--3-----
G|--0-----------3--4-----3--4--6--6--0-----------3--4--------------
D|--2-----------------2--------------2-----------------2--2--2--2--
A|--------------------2--------------------------------2--2--2--2--
E|-----------------------------------------------------------------

Stave 4:

E|--5--------------7--------------5--------------2--------------
B|--7-----7--5--5--8-----8--7--5--7-----7--5--5--3-----3--3--3--
G|--7--7-----------9--9-----------7--7-----------4--4-----4--4--
D|--------------------------------------------------------4--4--
A|--------------------------------------------------------------
E|--------------------------------------------------------------

Stave 5:

E|-----2-----0--0--2--5--3--2--0--2-----2-----0--0--2--0-----0--
B|--2-----3--------3-----------------2-----3--------3--2--2--0--
G|--2--------------4-----------------2--------------4--3--0--0--
D|--------------------------------------------------------2--2--
A|--2--------------------------------2--------------------------
E|--------------------------------------------------------------

http://www.guitartabcreator.com
Guitar Tab Creator is intended to store guitar tab created through the tool. It currently does not support in-line text editing. Any text you place in here will be lost. If you need to comment on your tab, please use the "Tab Notes" section located below.