Sound will begin in 5 seconds

dreamy instrumental (key of A)***********************

Chords
01234567891011121314151617181920212223
E
B
G
D
A
E
B
0 1 2 3 4 5 6 7 8 9 10 11 12 13 14 15 16 17 18 19 20 21 22 23
Song Science #1: How Pros Use 6 Chords to Write Hit Songs
(/) Slide Up  (\) Slide Down  (h) Hammer On  (p) Pull Off  (b) Bend (r) Release (v) Vibrato

Stave 1:

E|-------------7--------7-----------7-----------------------------------------7-----------------7--------
B|-------5--------5-----------5--------5--------------7-----------5-----5--------5--------5--------5-----
G|----------4--------4-----------4--------4--------4-----------2-----------4--------4--------4--------4--
D|----6--------------------6--------------------6-----------4--------6-----------------6-----------------
A|-------------------------------------------7-----------5-----------------------------------------------
E|-------------------------------------------------------------------------------------------------------

Stave 2:

E|--------------------------
B|-----------7-----------5--
G|--------5-----------7-----
D|-----6-----------7--------
A|--7-----------------------
E|--------------7-----------

Stave 3:

E|--7-----------
B|--5--5--3--5--
G|--4--4--2--7--
D|--6--6--4--7--
A|-----7--5-----
E|-----------7--

Stave 4:

E|--------------------------------------------------------------0--------------------------------------
B|-----------5-----------------3-----------------0--1--3--1--0--------------5-----------------3--------
G|--------5-----5-----------0-----0-----------0--------------------------5-----5-----------0-----0-----
D|-----4-----------4-----3-----------3-----2--------------------------4-----------4-----3-----------3--
A|-----------------------------------------------------------------------------------------------------
E|--5-----------------3-----------------0--------------------------5-----------------3-----------------

Stave 5:

E|--------------------------
B|--------------------------
G|-----------5-----------4--
D|--------4-----------2-----
A|-----3-----------2--------
E|--0-----------0-----------

http://www.guitartabcreator.com
Guitar Tab Creator is intended to store guitar tab created through the tool. It currently does not support in-line text editing. Any text you place in here will be lost. If you need to comment on your tab, please use the "Tab Notes" section located below.