Sound will begin in 5 seconds

The Disguise (Key of D intro & rest Bb )***********

Chords
01234567891011121314151617181920212223
E
B
G
D
A
E
B
0 1 2 3 4 5 6 7 8 9 10 11 12 13 14 15 16 17 18 19 20 21 22 23
Song Science #1: How Pros Use 6 Chords to Write Hit Songs
(/) Slide Up  (\) Slide Down  (h) Hammer On  (p) Pull Off  (b) Bend (r) Release (v) Vibrato

Stave 1:

E|-----------------------------------------------------------------------------------------
B|-----------5-----------5-----------5-----------5-----------2-----------2-----------------
G|--------6-----6-----------------6-----6-----------------4-----4-----------------0--2--4--
D|-----7-----------7-----------7-----------7-----------4-----------4-----------0-----------
A|--5-----------------5-----4-----------------4-----2-----------------2-----0--------------
E|-----------------------------------------------------------------------------------------

Stave 2:

E|-----------
B|--5--5--2--
G|--6--6--4--
D|--7--7--4--
A|--5--4--2--
E|-----------

Stave 3:

E|--------------------------------------------------------------------------------
B|-----------1--------1-----------3-----3-----------1--------1--3--3--5--6--5--0--
G|--------2-----2--------------0-----------------2-----2--------0-----------------
D|-----2-----------2--------3--------3--------2-----------2-----3-----------------
A|--------------------------------------------------------------------------------
E|--1--------------------3-----------------1--------------------3-----------------

Stave 4:

E|--5--7--5--------3--5--6--3--3--5--7--5-----------------------------
B|--6--------5--3--4--------4--4--6--------5--------7--8--7-----8--8--
G|--7--------------5--------5--5--7-----------7--7--7--7--7--7--7--7--
D|-----------------------------------------------5--5--5--5--5--5--5--
A|-----------------------------------------------7--7--7--7--7--7--7--
E|--------------------------------------------------------------------

Stave 5:

E|------------------------------------------------------------------------------------------
B|--------------7-----7-----------------7-----7-----------------7-----7-----9-----9-----10--
G|--6--7--9-----------------6--7--9-----------------6--7--9---------------------------------
D|-----------7-----7-----7-----------7-----7-----7-----------7-----7-----7-----9-----9------
A|------------------------------------------------------------------------------------------
E|------------------------------------------------------------------------------------------

Stave 6:

E|-------------------------------------------------------
B|-----7-----7-----9-----10--10-----7-----7-----5-----7--
G|-------------------------------------------------------
D|--6-----7-----9-----9----------6-----7-----4-----6-----
A|-------------------------------------------------------
E|-------------------------------------------------------

Stave 7:

E|--------------------------------------------------------------0--------------------------------------
B|-----------5-----------------3-----------------0--1--3--1--0--------------5-----------------3--------
G|--------5-----5-----------0-----0-----------0--------------------------5-----5-----------0-----0-----
D|-----4-----------4-----3-----------3-----2--------------------------4-----------4-----3-----------3--
A|-----------------------------------------------------------------------------------------------------
E|--5-----------------3-----------------0--------------------------5-----------------3-----------------

Stave 8:

E|--------------------------------------------------------------------------------------------
B|--------------------------------------5-----------------7-----------------8-----------7--5--
G|-----------5-----------4--0--------5-----5-----------7-----7-----------7-----------7--------
D|--------4-----------2-----------4-----------4-----7-----------7-----7-----------7-----------
A|-----3-----------0--------------------------------------------------------------------------
E|--0-----------0--------------5-----------------7-----------------8-----------7--------------

Stave 9:

E|--------------------------------------------------------------
B|-----------5-----------------7-----------------8-----------3--
G|--------5-----5-----------7-----7-----------7-----------2-----
D|-----4-----------4-----7-----------7-----7-----------2--------
A|--------------------------------------------------------------
E|--5-----------------7-----------------8-----------3-----------

Stave 10:

E|--------------------------------------------------------------------------------------------
B|--------------------------------------------------------------------------------------------
G|--------------------------------------------------------------------------------------------
D|-----------------------------------2--0--2--------------------------------------2--0--2--3--
A|--------3--------5--------3-----------------3--------3--------5--------3--------------------
E|-----1-----3--3-----1--1-----3--1--------------1--1-----3--3-----1--1-----3--1--------------

http://www.guitartabcreator.com
Guitar Tab Creator is intended to store guitar tab created through the tool. It currently does not support in-line text editing. Any text you place in here will be lost. If you need to comment on your tab, please use the "Tab Notes" section located below.