Sound will begin in 5 seconds

Bad side of town (Key of A Ionian) Key change to B Ionian

Chords
01234567891011121314151617181920212223
E
B
G
D
A
E
B
0 1 2 3 4 5 6 7 8 9 10 11 12 13 14 15 16 17 18 19 20 21 22 23
Song Science #1: How Pros Use 6 Chords to Write Hit Songs
(/) Slide Up  (\) Slide Down  (h) Hammer On  (p) Pull Off  (b) Bend (r) Release (v) Vibrato

Stave 1:

E|--------------------------------------------------------------------------------9------------------
B|--11-------------11--11------------------11-------------11--11------------------9---------------9--
G|--10---------10------10------------------10---------10------10------------------10----------10-----
D|--9-------9----------11------11----------9-------9----------11------11----------11------11---------
A|--10--10-------------13--13------12--13--10--10-------------13--13------12--13--11--11-------------
E|--------------------------------------------------------------------------------9------------------

Stave 2:

E|--_-----------------9----------------------------------------4--2--2--4--2--2--4--4--2--4--
B|--9------------------9---------------9--9---------------------5--3--3--5--3--3--5--7--3--5--
G|--8------------------10----------10-----8---------------------4--2--2--4--2--2--4--4--2--4--
D|--9-------9----------11------11---------9-------9------9--11--6--4--4--6--4--4--6--6--4--6--
A|--11--11-----10--11--11--11-------------11--11-----10---------7--5--5--7--5--5--7-----5--7--
E|--_-----------------9----------------------------------------------------------------------

Stave 3:

E|---------------------------------------------------------------------
B|---------------------------------------------------------------------
G|---------------------------------------------------------------------
D|-----------7--------------7------------------1--------------1--------
A|--------8-----8--------8-----8--10--1--1--2-----2--1--1--2-----2--5--
E|--7--7-----------7--7------------------------------------------------

Stave 4:

E|--2--4--4--3-----------------2--4--4--3--------------7--
B|--2--4--4--4-----------------2--4--4--4--------------7--
G|--3--4--4--3-----------------3--4--4--3--------------8--
D|--4--6--6--5-----------------4--6--6--5--------------9--
A|--4--6--6--6--6--5--4--5--6--4--6--6--6--6--5--4--5--9--
E|--2--4--4--------------------2--4--4-----------------7--

Stave 5:

E|--
B|--
G|--
D|--
A|--
E|--

Stave 6:

E|--
B|--
G|--
D|--
A|--
E|--

http://www.guitartabcreator.com
Guitar Tab Creator is intended to store guitar tab created through the tool. It currently does not support in-line text editing. Any text you place in here will be lost. If you need to comment on your tab, please use the "Tab Notes" section located below.