Tab2

Chords

01234567891011121314151617181920212223
E
B
G
D
A
E
B
0 1 2 3 4 5 6 7 8 9 10 11 12 13 14 15 16 17 18 19 20 21 22 23
(/) Slide Up  (\) Slide Down  (h) Hammer On  (p) Pull Off  (b) Bend (r) Release (v) Vibrato

Stave 1:

G|-----------7--9--10-----7--------------7--9--10--9--12--------
D|--------------------------------------------------------------
A|--------------------------------------------------------------
E|--0---------------------------0-------------------------------
B|--------------------------------------------------------------

Stave 2:

G|-----------7--9--10-----7-----------------9--10--9--7--9-----
D|-------------------------------------------------------------
A|-------------------------------------------------------------
E|--0---------------------------0------------------------------
B|-------------------------------------------------------------

Stave 3:

G|-----------7--9--10-----7--------------7--9--10--9--12--------
D|--------------------------------------------------------------
A|--------------------------------------------------------------
E|--0---------------------------0-------------------------------
B|--------------------------------------------------------------

Stave 4:

G|-----------7--9--10-----7--------------7--9--10--9--7--9-----
D|-------------------------------------------------------------
A|-------------------------------------------------------------
E|--0---------------------------0------------------------------
B|-------------------------------------------------------------

Stave 5:

G|--------------------------------------------------------------------------------
D|--------------------------------------------------------------------------------
A|--------------------------------------------------------------------------------
E|--0--0-----0--0--0-----0--1-----------0--0-----0--0--0-----0--1--0--3-----3--3--
B|--------------------3-----------3-----------------------3-----------------------

Stave 6:

G|--------------------------------------------------------------------------------------
D|--------------------------------------------------------------------------------------
A|--------------------------------------------------------------------------------------
E|--0--0-----0--0--0-----0--1-----------0--0-----0--0--0-----0--1-----0-----------3-----
B|--------------------3-----------3-----------------------------------------3-----------

Stave 7:

G|-----------------------------------------------------
D|-----------------------------------------------------
A|-----------------------------------------------------
E|--0--0-----0--0--0-----0--1--1--------1--------------
B|-----------------------------------------3--3-----3--

Stave 8:

G|--------------------------------------------------
D|--------------------------------------------------
A|--------------------------------------------------
E|--0--0-----0--0--0-----0--1--1-----1--3--3-----3--
B|--------------------------------------------------

Stave 9:

G|--------------------------------------------------
D|--------------------------------------------------
A|--------------------------3--3-----3--------------
E|--5--5-----5--5--5-----5--------------3--3-----3--
B|--------------------------------------------------

Stave 10:

G|---------------------------------------------------------------------------
D|---------------------------------------------------------------------------
A|--3-----3--3--3-----3--5-----5--5--5-----5--8-----8--8--8-----8--10--------
E|---------------------------------------------------------------------------
B|---------------------------------------------------------------------------

Stave 11:

G|-----------------------------------------------------------------------------------------
D|-----------------------------------------------------------------------------------------
A|--------------------------------------------------------------------------3-----3--3-----
E|--5--5-----5--5--5-----3--5--6-----3-----5--5-----5--5--5-----3--5--6--5-----------------
B|-----------------------------------------------------------------------------------------

Stave 12:

G|-----------------------------------------------------------------------------------
D|-----------------------------------------------------------------------------------
A|-----------------------------------------------------------------------------------
E|--5--5-----5--5--5-----3--5--6-----3-----5--5-----5--5--5-----3--5--6--5--3--5-----
B|-----------------------------------------------------------------------------------

							http://www.guitartabcreator.com
Instruments
{"strings":[[[".","_","_",7,9,10,"_",7,"_",".","_","_",7,9,10,9,12,"_","_"],[".","_","_",".",".",".","_",".","_",".","_","_",".",".",".",".",".","_","_"],[".","_","_",".",".",".","_",".","_",".","_","_",".",".",".",".",".","_","_"],[0,"_","_",".",".",".","_",".","_",0,"_","_",".",".",".",".",".","_","_"],[".","_","_",".",".",".","_",".","_",".","_","_",".",".",".",".",".","_","_"]],[[".","_","_",7,9,10,"_",7,"_",".","_","_","_",9,10,9,7,9,"_"],[".","_","_",".",".",".","_",".","_",".","_","_","_",".",".",".",".",".","_"],[".","_","_",".",".",".","_",".","_",".","_","_","_",".",".",".",".",".","_"],[0,"_","_",".",".",".","_",".","_",0,"_","_","_",".",".",".",".",".","_"],[".","_","_",".",".",".","_",".","_",".","_","_","_",".",".",".",".",".","_"]],[[".","_","_",7,9,10,"_",7,"_",".","_","_",7,9,10,9,12,"_","_"],[".","_","_",".",".",".","_",".","_",".","_","_",".",".",".",".",".","_","_"],[".","_","_",".",".",".","_",".","_",".","_","_",".",".",".",".",".","_","_"],[0,"_","_",".",".",".","_",".","_",0,"_","_",".",".",".",".",".","_","_"],[".","_","_",".",".",".","_",".","_",".","_","_",".",".",".",".",".","_","_"]],[[".","_","_",7,9,10,"_",7,"_",".","_","_",7,9,10,9,7,9,"_"],[".","_","_",".",".",".","_",".","_",".","_","_",".",".",".",".",".",".","_"],[".","_","_",".",".",".","_",".","_",".","_","_",".",".",".",".",".",".","_"],[0,"_","_",".",".",".","_",".","_",0,"_","_",".",".",".",".",".",".","_"],[".","_","_",".",".",".","_",".","_",".","_","_",".",".",".",".",".",".","_"]],[[".",".","_",".",".",".",".",".",".","_",".","_",".",".","_",".",".",".",".",".",".",".",".","_",".","."],[".",".","_",".",".",".",".",".",".","_",".","_",".",".","_",".",".",".",".",".",".",".",".","_",".","."],[".",".","_",".",".",".",".",".",".","_",".","_",".",".","_",".",".",".",".",".",".",".",".","_",".","."],[0,0,"_",0,0,0,".",0,1,"_",".","_",0,0,"_",0,0,0,".",0,1,0,3,"_",3,3],[".",".","_",".",".",".",3,".",".","_",3,"_",".",".","_",".",".",".",3,".",".",".",".","_",".","."]],[[".",".","_",".",".",".",".",".",".","_",".","_",".",".","_",".",".",".","_",".",".","_",".","_",".","_",".","_"],[".",".","_",".",".",".",".",".",".","_",".","_",".",".","_",".",".",".","_",".",".","_",".","_",".","_",".","_"],[".",".","_",".",".",".",".",".",".","_",".","_",".",".","_",".",".",".","_",".",".","_",".","_",".","_",".","_"],[0,0,"_",0,0,0,".",0,1,"_",".","_",0,0,"_",0,0,0,"_",0,1,"_",0,"_",".","_",3,"_"],[".",".","_",".",".",".",3,".",".","_",3,"_",".",".","_",".",".",".","_",".",".","_",".","_",3,"_",".","_"]],[[".",".","_",".",".",".","_",".",".",".","_","_",".",".",".","_","."],[".",".","_",".",".",".","_",".",".",".","_","_",".",".",".","_","."],[".",".","_",".",".",".","_",".",".",".","_","_",".",".",".","_","."],[0,0,"_",0,0,0,"_",0,1,1,"_","_",1,".",".","_","."],[".",".","_",".",".",".","_",".",".",".","_","_",".",3,3,"_",3]],[[".",".","_",".",".",".","_",".",".",".","_",".",".",".","_","."],[".",".","_",".",".",".","_",".",".",".","_",".",".",".","_","."],[".",".","_",".",".",".","_",".",".",".","_",".",".",".","_","."],[0,0,"_",0,0,0,"_",0,1,1,"_",1,3,3,"_",3],[".",".","_",".",".",".","_",".",".",".","_",".",".",".","_","."]],[[".",".","_",".",".",".","_",".",".",".","_",".",".",".","_","."],[".",".","_",".",".",".","_",".",".",".","_",".",".",".","_","."],[".",".","_",".",".",".","_",".",3,3,"_",3,".",".","_","."],[5,5,"_",5,5,5,"_",5,".",".","_",".",3,3,"_",3],[".",".","_",".",".",".","_",".",".",".","_",".",".",".","_","."]],[[".","_",".",".",".","_",".",".","_",".",".",".","_",".",".","_",".",".",".","_",".",".","_","_"],[".","_",".",".",".","_",".",".","_",".",".",".","_",".",".","_",".",".",".","_",".",".","_","_"],[3,"_",3,3,3,"_",3,5,"_",5,5,5,"_",5,8,"_",8,8,8,"_",8,10,"_","_"],[".","_",".",".",".","_",".",".","_",".",".",".","_",".",".","_",".",".",".","_",".",".","_","_"],[".","_",".",".",".","_",".",".","_",".",".",".","_",".",".","_",".",".",".","_",".",".","_","_"]],[[".",".","_",".",".",".","_",".",".",".","_",".","_",".",".","_",".",".",".","_",".",".",".",".",".","_",".",".","_"],[".",".","_",".",".",".","_",".",".",".","_",".","_",".",".","_",".",".",".","_",".",".",".",".",".","_",".",".","_"],[".",".","_",".",".",".","_",".",".",".","_",".","_",".",".","_",".",".",".","_",".",".",".",".",3,"_",3,3,"_"],[5,5,"_",5,5,5,"_",3,5,6,"_",3,"_",5,5,"_",5,5,5,"_",3,5,6,5,".","_",".",".","_"],[".",".","_",".",".",".","_",".",".",".","_",".","_",".",".","_",".",".",".","_",".",".",".",".",".","_",".",".","_"]],[[".",".","_",".",".",".","_",".",".",".","_",".","_",".",".","_",".",".",".","_",".",".",".",".",".",".","_"],[".",".","_",".",".",".","_",".",".",".","_",".","_",".",".","_",".",".",".","_",".",".",".",".",".",".","_"],[".",".","_",".",".",".","_",".",".",".","_",".","_",".",".","_",".",".",".","_",".",".",".",".",".",".","_"],[5,5,"_",5,5,5,"_",3,5,6,"_",3,"_",5,5,"_",5,5,5,"_",3,5,6,5,3,5,"_"],[".",".","_",".",".",".","_",".",".",".","_",".","_",".",".","_",".",".",".","_",".",".",".",".",".",".","_"]]],"numberofstrings":5,"notes":["G","D","A","E","B"],"capo":0,"stringnotes":["G2","D2","A1","E1","B0"],"comments":["Stave 1:","Stave 2:","Stave 3:","Stave 4:","Stave 5:","Stave 6:","Stave 7:","Stave 8:","Stave 9:","Stave 10:","Stave 11:","Stave 12:"],"timing":[[null,null,null,null,null,null,null,null,null,null,null,null,null,null,null,null,null],[null,null,null,null,null,null,null,null,null,null,null,null,null,null,null,null,null,null],[null,null,null,null,null,null,null,null,null,null,null,null,null,null,null,null,null],[null,null,null,null,null,null,null,null,null,null,null,null,null,null,null,null,null,null],["W","W",null,"W","W","W","W","W","W",null,"W",null,"W","W",null,"W","W","W","W","W","W","W","W",null,"W","W"],["W","W",null,"W","W","W","W","W","W",null,"W",null,"W","W",null,"W","W","W",null,"W","W",null,"W",null,"W",null,"W"],["W","W",null,"W","W","W",null,"W","W","W",null,null,"W","W","W",null,"W"],["W","W",null,"W","W","W",null,"W","W","W",null,"W","W","W",null,"W"],["W","W",null,"W","W","W",null,"W","W","W",null,"W","W","W",null,"W","W","W"],["W",null,"W","W","W",null,"W","W",null,"W","W","W",null,"W","W",null,"W","W","W",null,"W","W"],["W","W",null,"W","W","W",null,"W","W","W",null,"W",null,"W","W",null,"W","W","W",null,"W","W","W","W","W",null,"W","W"],["W","W",null,"W","W","W",null,"W","W","W",null,"W",null,"W","W",null,"W","W","W",null,"W","W","W","W","W","W"]],"timingvisible":false,"tabcounter":27,"stave":11,"totalstaves":12,"instrument":"5bass","selectedtuning":"5bass","version":"13"}

Member for

2 months 4 weeks
Submitted by jorgerobo23 on Wed, 2020-07-29 12:59