Tab1

Chords

01234567891011121314151617181920212223
E
B
G
D
A
E
B
0 1 2 3 4 5 6 7 8 9 10 11 12 13 14 15 16 17 18 19 20 21 22 23
(/) Slide Up  (\) Slide Down  (h) Hammer On  (p) Pull Off  (b) Bend (r) Release (v) Vibrato

Stave 1:

G|-------------------------------------------------------------------------------------
D|-------------------------------------------------------------------------------------
A|----------------------------------------------------------------------------8--------
E|--10--10--10--10--10--10--10-----8-----9-----10--10--10--10--10--10--10--------------
B|-------------------------------------------------------------------------------------

Stave 2:

G|--------------------------------------------------------------------------------------
D|--------------------------------------------------------------------------------------
A|----------------------------------------------------------------------------10--------
E|--10--10--10--10--10--10--10-----8-----9-----10--10--10--10--10--10--10---------------
B|--------------------------------------------------------------------------------------

Stave 3:

G|-------------------------------------------------------------------------------------
D|-------------------------------------------------------------------------------------
A|----------------------------------------------------------------------------8--------
E|--10--10--10--10--10--10--10-----8-----9-----10--10--10--10--10--10--10--------------
B|-------------------------------------------------------------------------------------

Stave 4:

G|--------------------------------------------------------------------------------------
D|--------------------------------------------------------------------------------------
A|---------------------------------------------8--8--8--8--8--8--10--10--10--10--10--10r
E|--10--10--10--10--10--10--10-----8-----9----------------------------------------------
B|--------------------------------------------------------------------------------------

Stave 5:

G|-----------------------------------------------------------------------
D|-----------------------------------------------------------------------
A|-----------------------------------------------------------------------
E|-----------------------------------------------------------------------
B|--3-----3-----3-----3-----3-----1--2--3-----3-----3-----3-----3-----4--

Stave 6:

G|--------------------------------------------------------------------------
D|--------------------------------------------------------------------------
A|--------------------------------------------------------------------------
E|--------------------------------------1--1--1--1--1--1--3--3--3--3--3--3--
B|--3-----3-----3-----3-----3-----1--2--------------------------------------

Stave 7:

G|-----------------------------------------------------------------------------------------------------
D|-----------------------------------------------------------------------------------------------------
A|--------------------------------------------3--------------------------------------------------3--4--
E|--5--5--5--5--5--5--5--6--6--5--5--5--5--5-----------5--5--5--5--5--5--5--6--6--5--5--5--5--5--------
B|-----------------------------------------------------------------------------------------------------

Stave 8:

G|--------------------------------------------------------------------
D|--------------------------------------------------------------------
A|--------------------------------------------------------------------
E|-----------------------1-----3-----------------------4-----3-----1--
B|--3--3--3--3--3--3--3--------------3--3--3--3--3--3-----------------

Stave 9:

G|--------------------------------------------------------------
D|--------------------------------------------------------------
A|--------------------------------------------------------------
E|--------------------------------------------------------------
B|--5--5--5--5--5--5--5-----3-----4-----5--5--5--5--5--5--5--6--

Stave 10:

G|--------------------------------------------------------------
D|--------------------------------------------------------------
A|--------------------------------------------------------------
E|-----------------------------------------------------------3--
B|--5--5--5--5--5--5--5-----3-----4-----5--5--5--5--5--5--5-----

Stave 11:

G|--------------------------------------------------------
D|--------------------------------------------------------
A|--------------------------------------------------------
E|--------------------------------------------------------
B|--5--5--5--5--5--5--5-----3-----4-----5--5--5--5--5--6--

Stave 12:

G|--------------------------------------------------------------------------
D|--------------------------------------------------------------------------
A|--------------------------------------------------------------------------
E|--------------------------------------3--3--3--3--3--3--5--5--5--5--5--5--
B|--5--5--5--5--5--5--5-----3-----4-----------------------------------------

Stave 13:

G|---------------------------------------------------------------------------------
D|---------------------------------------------------------------------------------
A|-----------------------------------8--------------------------------------10-----
E|--10--10--8--10--10--8--10--10--8--------10--10--8--10--10--8--10--10--8---------
B|---------------------------------------------------------------------------------

Stave 14:

G|-----------------------------------------------------------------------------------
D|-----------------------------------------------------------------------------------
A|-----------------------------------8---------------------------11-----10-----8-----
E|--10--10--8--10--10--8--10--10--8--------10--10--8--10--10--8----------------------
B|-----------------------------------------------------------------------------------

Stave 15:

G|-----------------------------------------------------------------------------------
D|-----------------------------------------------------------------------------------
A|------------------------11-----10-----8---------------------------11-----10-----8--
E|--10--10--8--10--10--8----------------------10--10--8--10--10--8-------------------
B|-----------------------------------------------------------------------------------

Stave 16:

G|-----------------------------------------------------------------------------------
D|-----------------------------------------------------------------------------------
A|------------------------11-----10-----8----------------------------------8-----10--
E|--10--10--8--10--10--8----------------------10--10--8--10--10--8--10---------------
B|-----------------------------------------------------------------------------------

							http://www.guitartabcreator.com
Instruments
{"strings":[[[".",".",".",".",".",".",".","_",".","_",".","_",".",".",".",".",".",".",".","_",".","_","_"],[".",".",".",".",".",".",".","_",".","_",".","_",".",".",".",".",".",".",".","_",".","_","_"],[".",".",".",".",".",".",".","_",".","_",".","_",".",".",".",".",".",".",".","_",8,"_","_"],[10,10,10,10,10,10,10,"_",8,"_",9,"_",10,10,10,10,10,10,10,"_",".","_","_"],[".",".",".",".",".",".",".","_",".","_",".","_",".",".",".",".",".",".",".","_",".","_","_"]],[[".",".",".",".",".",".",".","_",".","_",".","_",".",".",".",".",".",".",".","_",".","_","_"],[".",".",".",".",".",".",".","_",".","_",".","_",".",".",".",".",".",".",".","_",".","_","_"],[".",".",".",".",".",".",".","_",".","_",".","_",".",".",".",".",".",".",".","_",10,"_","_"],[10,10,10,10,10,10,10,"_",8,"_",9,"_",10,10,10,10,10,10,10,"_",".","_","_"],[".",".",".",".",".",".",".","_",".","_",".","_",".",".",".",".",".",".",".","_",".","_","_"]],[[".",".",".",".",".",".",".","_",".","_",".","_",".",".",".",".",".",".",".","_",".","_","_"],[".",".",".",".",".",".",".","_",".","_",".","_",".",".",".",".",".",".",".","_",".","_","_"],[".",".",".",".",".",".",".","_",".","_",".","_",".",".",".",".",".",".",".","_",8,"_","_"],[10,10,10,10,10,10,10,"_",8,"_",9,"_",10,10,10,10,10,10,10,"_",".","_","_"],[".",".",".",".",".",".",".","_",".","_",".","_",".",".",".",".",".",".",".","_",".","_","_"]],[[".",".",".",".",".",".",".","_",".","_",".","_",".",".",".",".",".",".",".",".",".",".",".",".","."],[".",".",".",".",".",".",".","_",".","_",".","_",".",".",".",".",".",".",".",".",".",".",".",".","."],[".",".",".",".",".",".",".","_",".","_",".","_",8,8,8,8,8,8,10,10,10,10,10,10,"r"],[10,10,10,10,10,10,10,"_",8,"_",9,"_",".",".",".",".",".",".",".",".",".",".",".",".","."],[".",".",".",".",".",".",".","_",".","_",".","_",".",".",".",".",".",".",".",".",".",".",".",".","."]],[[".","_",".","_",".","_",".","_",".","_",".",".",".","_",".","_",".","_",".","_",".","_","."],[".","_",".","_",".","_",".","_",".","_",".",".",".","_",".","_",".","_",".","_",".","_","."],[".","_",".","_",".","_",".","_",".","_",".",".",".","_",".","_",".","_",".","_",".","_","."],[".","_",".","_",".","_",".","_",".","_",".",".",".","_",".","_",".","_",".","_",".","_","."],[3,"_",3,"_",3,"_",3,"_",3,"_",1,2,3,"_",3,"_",3,"_",3,"_",3,"_",4]],[[".","_",".","_",".","_",".","_",".","_",".",".",".",".",".",".",".",".",".",".",".",".",".","."],[".","_",".","_",".","_",".","_",".","_",".",".",".",".",".",".",".",".",".",".",".",".",".","."],[".","_",".","_",".","_",".","_",".","_",".",".",".",".",".",".",".",".",".",".",".",".",".","."],[".","_",".","_",".","_",".","_",".","_",".",".",1,1,1,1,1,1,3,3,3,3,3,3],[3,"_",3,"_",3,"_",3,"_",3,"_",1,2,".",".",".",".",".",".",".",".",".",".",".","."]],[[".",".",".",".",".",".",".",".",".",".",".",".",".",".",".","_","_",".",".",".",".",".",".",".",".",".",".",".",".",".",".",".","."],[".",".",".",".",".",".",".",".",".",".",".",".",".",".",".","_","_",".",".",".",".",".",".",".",".",".",".",".",".",".",".",".","."],[".",".",".",".",".",".",".",".",".",".",".",".",".",".",3,"_","_",".",".",".",".",".",".",".",".",".",".",".",".",".",".",3,4],[5,5,5,5,5,5,5,6,6,5,5,5,5,5,".","_","_",5,5,5,5,5,5,5,6,6,5,5,5,5,5,".","."],[".",".",".",".",".",".",".",".",".",".",".",".",".",".",".","_","_",".",".",".",".",".",".",".",".",".",".",".",".",".",".",".","."]],[[".",".",".",".",".",".",".",".","_",".","_",".",".",".",".",".",".",".","_",".","_","."],[".",".",".",".",".",".",".",".","_",".","_",".",".",".",".",".",".",".","_",".","_","."],[".",".",".",".",".",".",".",".","_",".","_",".",".",".",".",".",".",".","_",".","_","."],[".",".",".",".",".",".",".",1,"_",3,"_",".",".",".",".",".",".",4,"_",3,"_",1],[3,3,3,3,3,3,3,".","_",".","_",3,3,3,3,3,3,".","_",".","_","."]],[[".",".",".",".",".",".",".","_",".","_",".","_",".",".",".",".",".",".",".","."],[".",".",".",".",".",".",".","_",".","_",".","_",".",".",".",".",".",".",".","."],[".",".",".",".",".",".",".","_",".","_",".","_",".",".",".",".",".",".",".","."],[".",".",".",".",".",".",".","_",".","_",".","_",".",".",".",".",".",".",".","."],[5,5,5,5,5,5,5,"_",3,"_",4,"_",5,5,5,5,5,5,5,6]],[[".",".",".",".",".",".",".","_",".","_",".","_",".",".",".",".",".",".",".","."],[".",".",".",".",".",".",".","_",".","_",".","_",".",".",".",".",".",".",".","."],[".",".",".",".",".",".",".","_",".","_",".","_",".",".",".",".",".",".",".","."],[".",".",".",".",".",".",".","_",".","_",".","_",".",".",".",".",".",".",".",3],[5,5,5,5,5,5,5,"_",3,"_",4,"_",5,5,5,5,5,5,5,"."]],[[".",".",".",".",".",".",".","_",".","_",".","_",".",".",".",".",".","."],[".",".",".",".",".",".",".","_",".","_",".","_",".",".",".",".",".","."],[".",".",".",".",".",".",".","_",".","_",".","_",".",".",".",".",".","."],[".",".",".",".",".",".",".","_",".","_",".","_",".",".",".",".",".","."],[5,5,5,5,5,5,5,"_",3,"_",4,"_",5,5,5,5,5,6]],[[".",".",".",".",".",".",".","_",".","_",".","_",".",".",".",".",".",".",".",".",".",".",".","."],[".",".",".",".",".",".",".","_",".","_",".","_",".",".",".",".",".",".",".",".",".",".",".","."],[".",".",".",".",".",".",".","_",".","_",".","_",".",".",".",".",".",".",".",".",".",".",".","."],[".",".",".",".",".",".",".","_",".","_",".","_",3,3,3,3,3,3,5,5,5,5,5,5],[5,5,5,5,5,5,5,"_",3,"_",4,"_",".",".",".",".",".",".",".",".",".",".",".","."]],[[".",".",".",".",".",".",".",".",".",".","_",".",".",".",".",".",".",".",".",".",".","_"],[".",".",".",".",".",".",".",".",".",".","_",".",".",".",".",".",".",".",".",".",".","_"],[".",".",".",".",".",".",".",".",".",8,"_",".",".",".",".",".",".",".",".",".",10,"_"],[10,10,8,10,10,8,10,10,8,".","_",10,10,8,10,10,8,10,10,8,".","_"],[".",".",".",".",".",".",".",".",".",".","_",".",".",".",".",".",".",".",".",".",".","_"]],[[".",".",".",".",".",".",".",".",".",".","_",".",".",".",".",".",".",".","_",".","_",".","_"],[".",".",".",".",".",".",".",".",".",".","_",".",".",".",".",".",".",".","_",".","_",".","_"],[".",".",".",".",".",".",".",".",".",8,"_",".",".",".",".",".",".",11,"_",10,"_",8,"_"],[10,10,8,10,10,8,10,10,8,".","_",10,10,8,10,10,8,".","_",".","_",".","_"],[".",".",".",".",".",".",".",".",".",".","_",".",".",".",".",".",".",".","_",".","_",".","_"]],[[".",".",".",".",".",".",".","_",".","_",".","_",".",".",".",".",".",".",".","_",".","_","."],[".",".",".",".",".",".",".","_",".","_",".","_",".",".",".",".",".",".",".","_",".","_","."],[".",".",".",".",".",".",11,"_",10,"_",8,"_",".",".",".",".",".",".",11,"_",10,"_",8],[10,10,8,10,10,8,".","_",".","_",".","_",10,10,8,10,10,8,".","_",".","_","."],[".",".",".",".",".",".",".","_",".","_",".","_",".",".",".",".",".",".",".","_",".","_","."]],[[".",".",".",".",".",".",".","_",".","_",".","_",".",".",".",".",".",".",".","_",".","_","."],[".",".",".",".",".",".",".","_",".","_",".","_",".",".",".",".",".",".",".","_",".","_","."],[".",".",".",".",".",".",11,"_",10,"_",8,"_",".",".",".",".",".",".",".","_",8,"_",10],[10,10,8,10,10,8,".","_",".","_",".","_",10,10,8,10,10,8,10,"_",".","_","."],[".",".",".",".",".",".",".","_",".","_",".","_",".",".",".",".",".",".",".","_",".","_","."]]],"numberofstrings":5,"notes":["G","D","A","E","B"],"capo":0,"stringnotes":["G2","D2","A1","E1","B0"],"comments":["Stave 1:","Stave 2:","Stave 3:","Stave 4:","Stave 5:","Stave 6:","Stave 7:","Stave 8:","Stave 9:","Stave 10:","Stave 11:","Stave 12:","Stave 13:","Stave 14:","Stave 15:","Stave 16:"],"timing":[[null,null,null,null,null,null,null,null,null,null,null,null,null,null,null,null,null,null,null,null,null,null,null,null,null,null,null,null,null,null],[null,null,null,null,null,null,null,null,null,null,null,null,null,null,null,null,null,null,null,null,null],[null,null,null,null,null,null,null,null,null,null,null,null,null,null,null,null,null,null,null,null,null],[null,null,null,null,null,null,null,null,null,null,null,null,null,null,null,null,null,null,null,null,null,null,null,null],["W",null,"W",null,"W",null,"W",null,"W",null,"W","W","W",null,"W",null,"W",null,"W",null,"W",null,"W"],["W",null,"W",null,"W",null,"W",null,"W",null,"W","W","W","W","W","W","W","W","W","W","W","W","W","W"],["W","W","W","W","W","W","W","W","W","W","W","W","W","W","W",null,null,"W","W","W","W","W","W","W","W","W","W","W","W","W","W","W","W"],["W","W","W","W","W","W","W","W",null,"W",null,"W","W","W","W","W","W","W",null,"W",null,"W"],["W","W","W","W","W","W","W",null,"W",null,"W",null,"W","W","W","W","W","W","W","W"],["W","W","W","W","W","W","W",null,"W",null,"W",null,"W","W","W","W","W","W","W","W"],["W","W","W","W","W","W","W",null,"W",null,"W",null,"W","W","W","W","W","W"],["W","W","W","W","W","W","W",null,"W",null,"W",null,"W","W","W","W","W","W","W","W","W","W","W","W"],["W","W","W","W","W","W","W","W","W","W",null,"W","W","W","W","W","W","W","W","W","W"],["W","W","W","W","W","W","W","W","W","W",null,"W","W","W","W","W","W","W",null,"W",null,"W"],["W","W","W","W","W","W","W",null,"W",null,"W",null,"W","W","W","W","W","W","W",null,"W",null,"W"],["W","W","W","W","W","W","W",null,"W",null,"W",null,"W","W","W","W","W","W","W",null,"W",null,"W"]],"timingvisible":false,"tabcounter":23,"stave":15,"totalstaves":16,"instrument":"5bass","selectedtuning":"5bass","version":"13"}

Member for

2 months 4 weeks
Submitted by jorgerobo23 on Tue, 2020-07-28 23:52