barbara tinoco

Chords

01234567891011121314151617181920212223
E
B
G
D
A
E
B
0 1 2 3 4 5 6 7 8 9 10 11 12 13 14 15 16 17 18 19 20 21 22 23
(/) Slide Up  (\) Slide Down  (h) Hammer On  (p) Pull Off  (b) Bend (r) Release (v) Vibrato

Stave 1:

E|--------------------------------------------------------5--------5-----------------------------
B|--------5--------5--------------5--------5-----------------6--------6-----------3--------3-----
G|-----------5--------5--------------3--------3--------5--------5--------------------4--------4--
D|-----5--------5--------------5--------5-----------3--------------------------5--------5--------
A|--3-----------------------3--------------------------------------------------------------------
E|--------------------------------------------------------------------------3--------------------

Stave 2:

E|--5-----3-----3-----3-----
B|--6-----3-----5-----5-----
G|--5-----4-----5-----3-----
D|--3-----5-----5-----5-----
A|--------5-----3-----3-----
E|--------3-----------------

							http://www.guitartabcreator.com
Instruments
{"title":"barbara tinoco","strings":[[[".",".",".",".",".",".",".","_",".",".",".",".",".",".",".","_",".",".",5,".",".",5,".","_",".",".",".",".",".",".","."],[".",".",5,".",".",5,".","_",".",".",5,".",".",5,".","_",".",".",".",6,".",".",6,"_",".",".",3,".",".",3,"."],[".",".",".",5,".",".",5,"_",".",".",".",3,".",".",3,"_",".",5,".",".",5,".",".","_",".",".",".",4,".",".",4],[".",5,".",".",5,".",".","_",".",5,".",".",5,".",".","_",3,".",".",".",".",".",".","_",".",5,".",".",5,".","."],[3,".",".",".",".",".",".","_",3,".",".",".",".",".",".","_",".",".",".",".",".",".",".","_",".",".",".",".",".",".","."],[".",".",".",".",".",".",".","_",".",".",".",".",".",".",".","_",".",".",".",".",".",".",".","_",3,".",".",".",".",".","."]],[[5,"_",3,"_",3,"_",3,"_"],[6,"_",3,"_",5,"_",5,"_"],[5,"_",4,"_",5,"_",3,"_"],[3,"_",5,"_",5,"_",5,"_"],[".","_",5,"_",3,"_",3,"_"],[".","_",3,"_",".","_",".","_"]]],"numberofstrings":6,"notes":["E","B","G","D","A","E","B"],"capo":0,"stringnotes":["E4","B3","G3","D3","A2","E2"],"comments":["Stave 1:","Stave 2:"],"timing":[["W","W","W","W","W","W","W",null,"W","W","W","W","W","W","W",null,"W","W","W","W","W","W","W",null,"W","W","W","W","W","W","W"],["W",null,"W",null,"W",null,"W"]],"timingvisible":false,"tabcounter":8,"stave":1,"totalstaves":2,"instrument":"6guitar","selectedtuning":"6_standard","version":"13"}

Member for

3 years 4 months
Submitted by jorgemiguel on Fri, 2020-02-14 15:25