Sound will begin in 5 seconds

Re I Am

01234567891011121314151617181920212223
E
B
G
D
A
E
B
0 1 2 3 4 5 6 7 8 9 10 11 12 13 14 15 16 17 18 19 20 21 22 23
Song Science #1: How Pros Use 6 Chords to Write Hit Songs
(/) Slide Up  (\) Slide Down  (h) Hammer On  (p) Pull Off  (b) Bend (r) Release (v) Vibrato

Stave 1:

E|--------------------------8----------------------------------11-----
B|--------8--9--------8--9-----11------------8--9--------8--9------9--
G|--4\10--------4\10---------------4\10--10--------4\10---------------
D|--------------------------------------------------------------------
A|--------------------------------------------------------------------
E|--------------------------------------------------------------------

Stave 2:

E|----------------------------------------------------------------------------------------------
B|----------------------------------------------------------------------------------9--8--6-----
G|--------8--8--8--8--8--8--6--5------------------------8--8--8--8-----8--8--10--8-----------8--
D|--6--6--------------------------8--6--8--10-----6--6------------------------------------------
A|----------------------------------------------------------------------------------------------
E|----------------------------------------------------------------------------------------------

Stave 3:

E|----------------------------------------------------------------------------
B|----------------------------------------------------------------------------
G|--5--6--8-----------------5--6\8--------------------------------------------
D|-----------6--6--5--6-------------6--6--5--6-----5--6\10--8--6--6--5--6--6--
A|----------------------------------------------------------------------------
E|----------------------------------------------------------------------------

Stave 4:

E|--------------------------------------
B|--9--8----------8---------------------
G|--------10--10-----8------------------
D|----------------------11--10--8\10/6--
A|--------------------------------------
E|--------------------------------------

Stave 5:

E|-------------------------------------------------------------------------------------------
B|-------------------------------------------------------------------------------9--8--6-----
G|--------8--8--8--8--8--8--6--5------------------------8--8--8--8-----8--10--8-----------8--
D|--6--6--------------------------8--6--8--10-----6--6---------------------------------------
A|-------------------------------------------------------------------------------------------
E|-------------------------------------------------------------------------------------------

Stave 6:

E|--------------------------------------------------------------------------------------------------
B|--------------------------------------------------------------------------------------------------
G|--5--6--8-----------8-----------------------------------------------------------------------------
D|-----------6--6--5-----6--6--5--6\10--8--6--6--5--6--8--10-----9--8--6--6--11--10--8--8--6--8--6--
A|--------------------------------------------------------------------------------------------------
E|--------------------------------------------------------------------------------------------------

Stave 7:

E|-------------------------------------------------------------------------
B|-----9--9-----9--11--9--8--9--------9--9---------------------------------
G|--8--------8---------------------8--------8--6--5--6--8--10--8--6--5-----
D|----------------------------------------------------------------------6--
A|-------------------------------------------------------------------------
E|-------------------------------------------------------------------------

Stave 8:

E|-----------------------------------------------------------------------
B|-----9--9-----9--11--9--8--9--------9--9------------------------9--11--
G|--8--------8---------------------8--------8--6--5--6--8--10--8---------
D|-----------------------------------------------------------------------
A|-----------------------------------------------------------------------
E|-----------------------------------------------------------------------

Stave 9:

E|--------------------------------------------------------------------------------
B|--13--11----------13--11-----13--11----------13--13---------11--13--11------11--
G|--------------10-------------------------10-------------13--------------13------
D|----------13-------------------------13-----------------------------------------
A|--------------------------------------------------------------------------------
E|--------------------------------------------------------------------------------

Stave 10:

E|--
B|--
G|--
D|--
A|--
E|--

http://www.guitartabcreator.com
Guitar Tab Creator is intended to store guitar tab created through the tool. It currently does not support in-line text editing. Any text you place in here will be lost. If you need to comment on your tab, please use the "Tab Notes" section located below.