Fantastic Beasts: Tina Takes Newt In (Part 2)

01234567891011121314151617181920212223
E
B
G
D
A
E
B
0 1 2 3 4 5 6 7 8 9 10 11 12 13 14 15 16 17 18 19 20 21 22 23
(/) Slide Up  (\) Slide Down  (h) Hammer On  (p) Pull Off  (b) Bend (r) Release (v) Vibrato

Stave 1:

E|------------------------------------------------------
B|--15--15--15--15--16--15--13--------------------------
G|------------------------------15--14--12--------------
D|------------------------------------------15--13--12--
A|------------------------------------------------------
E|------------------------------------------------------

Stave 2:

E|--------------------------------
B|--------------------------------
G|--7--8--7--5--------------------
D|--------------8--7--5--8--7--5--
A|--------------------------------
E|--------------------------------

Stave 3:

E|-----------------------------
B|-----------------------------
G|--------------7--------------
D|--5--8--7--5-----5--8--7--5--
A|-----------------------------
E|-----------------------------

Stave 4:

E|-----------------------------------
B|--------7--------------------------
G|-----5-----8--5--------5-----7--8--
D|--5--------------6--5-----5--------
A|-----------------------------------
E|-----------------------------------

Stave 5:

E|-----------------------------------
B|--------7--------------------------
G|-----5-----8--5--------5-----7--8--
D|--5--------------6--5-----5--------
A|-----------------------------------
E|-----------------------------------

							http://www.guitartabcreator.com
Chords

Instruments
{"strings":[[[".",".",".",".",".",".",".",".",".",".",".",".","."],[15,15,15,15,16,15,13,".",".",".",".",".","."],[".",".",".",".",".",".",".",15,14,12,".",".","."],[".",".",".",".",".",".",".",".",".",".",15,13,12],[".",".",".",".",".",".",".",".",".",".",".",".","."],[".",".",".",".",".",".",".",".",".",".",".",".","."]],[[".",".",".",".",".",".",".",".",".","."],[".",".",".",".",".",".",".",".",".","."],[7,8,7,5,".",".",".",".",".","."],[".",".",".",".",8,7,5,8,7,5],[".",".",".",".",".",".",".",".",".","."],[".",".",".",".",".",".",".",".",".","."]],[[".",".",".",".",".",".",".",".","."],[".",".",".",".",".",".",".",".","."],[".",".",".",".",7,".",".",".","."],[5,8,7,5,".",5,8,7,5],[".",".",".",".",".",".",".",".","."],[".",".",".",".",".",".",".",".","."]],[[".",".",".",".",".",".",".",".",".",".","."],[".",".",7,".",".",".",".",".",".",".","."],[".",5,".",8,5,".",".",5,".",7,8],[5,".",".",".",".",6,5,".",5,".","."],[".",".",".",".",".",".",".",".",".",".","."],[".",".",".",".",".",".",".",".",".",".","."]],[[".",".",".",".",".",".",".",".",".",".","."],[".",".",7,".",".",".",".",".",".",".","."],[".",5,".",8,5,".",".",5,".",7,8],[5,".",".",".",".",6,5,".",5,".","."],[".",".",".",".",".",".",".",".",".",".","."],[".",".",".",".",".",".",".",".",".",".","."]]],"numberofstrings":6,"notes":["E","B","G","D","A","E","B"],"capo":0,"stringnotes":["E4","B3","G3","D3","A2","E2"],"comments":["Stave 1:","Stave 2:","Stave 3:","Stave 4:","Stave 5:"],"timing":[["W","W","W","W","W","W","W","W","W","W","W","W","W"],["W","W","W","W","W","W","W","W","W","W"],["W","W","W","W","W","W","W","W","W"],["W","W","W","W","W","W","W","W","W","W","W"],["W","W","W","W","W","W","W","W","W","W","W"]],"timingvisible":false,"tabcounter":11,"stave":4,"totalstaves":5,"instrument":"6guitar","selectedtuning":"6_standard","version":"13"}

Member for

1 year 7 months
About Me
I teach guitar and play lead/rhythm in The Band RAFTERS
Submitted by jonwier on Wed, 2022-05-18 15:01