Sound will begin in 5 seconds

Go! Go! Maniac

Chords
01234567891011121314151617181920212223
E
B
G
D
A
E
B
0 1 2 3 4 5 6 7 8 9 10 11 12 13 14 15 16 17 18 19 20 21 22 23
Song Science #1: How Pros Use 6 Chords to Write Hit Songs
(/) Slide Up  (\) Slide Down  (h) Hammer On  (p) Pull Off  (b) Bend (r) Release (v) Vibrato

Stave 1:

E|-----------------------------------------------------------------------------------------------------
B|--------6--------------8-----------4-----x--x--4-----x--x-----1-----x--x--1-----x--x--6-----------4--
G|--------6--------------8-----------5-----x--x--5-----x--x-----2-----x--x--1-----x--x--6-----------5--
D|--6--6--6--x--x--x--x--8-----x--x--5-----x--x--5-----x--x-----2-----x--x--2-----x--x--6-----------5--
A|--4--4-----x--x--x--x--------x--x--------------------------------------------------------------------
E|-----------------------------------------------------------------------------------------------------

Stave 2:

E|------------------------------------------------------------------------------------
B|-------------------------------------------9--9-----------------11--11--------------
G|-------------------------------------------9--9-----------------11--11--------------
D|--8--8-----x--x--x--x--11--11-----x--x--x--9--9-----x--x--x--x--11--11--x--x--x--x--
A|--6--6-----x--x--x--x--9---9------x--x--x-----------x--x--x--x----------x--x--x--x--
E|------------------------------------------------------------------------------------

Stave 3:

E|-----------------------------------------------------
B|-----------------------------------------------------
G|--8--------------------------------------------------
D|--6-----------4--8--7-----6-----4--------------------
A|-----------6--2--6--5-----4-----2-----6--1--4--5--6--
E|-----------4--------------------------4--0--2--3--4--

http://www.guitartabcreator.com
Guitar Tab Creator is intended to store guitar tab created through the tool. It currently does not support in-line text editing. Any text you place in here will be lost. If you need to comment on your tab, please use the "Tab Notes" section located below.