Sound will begin in 5 seconds

Silent Lucidity (Rocksmith 2014 DLC)

01234567891011121314151617181920212223
E
B
G
D
A
E
B
0 1 2 3 4 5 6 7 8 9 10 11 12 13 14 15 16 17 18 19 20 21 22 23
Song Science #1: How Pros Use 6 Chords to Write Hit Songs
(/) Slide Up  (\) Slide Down  (h) Hammer On  (p) Pull Off  (b) Bend (r) Release (v) Vibrato

Stave 1:

E|------7-----7-----5-----5-----5------7-----7-----5-----5-----5---------
B|--------0-----0-----0-----0------------0-----0-----0-----0-------------
G|-----------------------------------------------------------------------
D|-5--------5-----5-----5-----5---5--------5-----5-----5-----5------2----
A|-----------------------------------------------------------------------
E|-----------------------------------------------------------------------

Stave 2:

E|-2-----2------------------------2-----2--------------------------
B|---0-----0---3-----3-----3--------0-----0---3-----3-----3--------
G|---------------0-----0------------------------0-----0-----0------
D|-----2-----2-----2-----2---2--------2-----2-----2-----2-----5----
A|-----------------------------------------------------------------
E|-----------------------------------------------------------------

Stave 3:

E|-7-----7-----5-----5-----5-----7-----7-----5-----5-----5--------
B|---0-----0-----0-----0-----0-----0-----0-----0-----0-----0------
G|----------------------------------------------------------------
D|-----5-----5-----5-----5-----5-----5-----5-----5-----5-----2----
A|----------------------------------------------------------------
E|----------------------------------------------------------------

Stave 4:

E|-2-----2------------------------2-----2--------------------------
B|---0-----0---3-----3-----3--------0-----0---3-----3-----3--------
G|---------------0-----0------------------------0-----0-----0------
D|-----2-----2-----2-----2---2--------2-----2-----2-----2-----5----
A|-----------------------------------------------------------------
E|-----------------------------------------------------------------

Stave 5:

E|-7-----7-----5-----5-----5--------7-----7-----5-----5-----5--------
B|---0-----0-----0-----0-----0--------0-----0-----0-----0-----0------
G|-------------------------------------------------------------------
D|-----5-----5-----5-----5-----5--------5-----5-----5-----5-----2----
A|-------------------------------------------------------------------
E|-------------------------------------------------------------------

Stave 6:

E|-2-----2------------------------2-----2--------------------------
B|---0-----0---3-----3-----3--------0-----0---3-----3-----3--------
G|---------------0-----0------------------------0-----0-----0------
D|-----2-----2-----2-----2---2--------2-----2-----2-----2----------
A|------------------------------------------------------------3----
E|-----------------------------------------------------------------

Stave 7:

E|-------------------------------------------------------------------
B|-5-----5-----3-----3-----3--------5-----5-----3-----3-----3--------
G|---0-----0-----0-----0-----0--------0-----0-----0-----0-----0------
D|-------------------------------------------------------------------
A|-----3-----3-----3-----3-----3--------3-----3-----3-----3-----0----
E|-------------------------------------------------------------------

Stave 8:

E|-------------------------------------------------------------------
B|-5-----5-----3-----3-----3--------5-----5-----3-----3-----3--------
G|---0-----0-----0-----0-----0--------0-----0-----0-----0-----0------
D|-------------------------------------------------------------------
A|-----0-----0-----0-----0-----0--------0-----0-----0-----0-----3----
E|-------------------------------------------------------------------

Stave 9:

E|-------------------------------------------------------------------
B|-5-----5-----3-----3-----3--------5-----5-----3-----3-----3--------
G|---0-----0-----0-----0-----0--------0-----0-----0-----0-----0------
D|-------------------------------------------------------------------
A|-----3-----3-----3-----3-----3--------3-----3-----3-----3-----0----
E|-------------------------------------------------------------------

http://www.guitartabcreator.com
Guitar Tab Creator is intended to store guitar tab created through the tool. It currently does not support in-line text editing. Any text you place in here will be lost. If you need to comment on your tab, please use the "Tab Notes" section located below.