Sound will begin in 5 seconds

You Must've Been

01234567891011121314151617181920212223
E
B
G
D
A
E
B
0 1 2 3 4 5 6 7 8 9 10 11 12 13 14 15 16 17 18 19 20 21 22 23
Song Science #1: How Pros Use 6 Chords to Write Hit Songs
(/) Slide Up  (\) Slide Down  (h) Hammer On  (p) Pull Off  (b) Bend (r) Release (v) Vibrato

Stave 1:

F|----------------------------------------
C|----------------------------------------
G|----------------------------------------
C|--2-----------------------2--------/14--

Stave 2:

F|-----------------------------------------------------------------------------------------------------
C|-----------------------------------------------------------------------------------------------------
G|--------------------2-----------------2-----------------------2-----------------2-----------------2--
C|--2-----2--5-----2-----2--2--5--2--------2-----5-----2-----2--------2--5--2--2-----2-----5--2--------

Stave 3:

F|----------------------------------------------------------------------------------------------5--
C|---------------------------------------------5---------------------------------------------5-----
G|--3-----3--3--------------3-----3--3--3h5/7-----3-----3--3--------------3-----3--3--3h5/7--------
C|--------------7--5--7--5------------------------------------7--5--7--5---------------------------

Stave 4:

F|-------------------------------------------------------------------------------------------------
C|--------------10--9-----------------10--9------------------10--9--------------10--9--------------
G|--7-----7--7------------7-----7--7---------10--7-----7--7---------7-----7--7---------7--5--7--5--
C|-------------------------------------------------------------------------------------------------

Stave 5:

F|--------------
C|--------------
G|--3-----2--0--
C|--------------

Stave 6:

F|---------------------------------------------------------------------------------------------
C|---------------------------------------------------------------------------------------------
G|--------5-----7-------------------------------5-----7----------------------------------------
C|--2-----------------2-----2--5--2--0h2--2-----------------2-----2--5--2--0h2--8-----7-----3--

Stave 7:

F|-----------------------------0-----------------------------0--3--2-----
C|--2-----------0--2--------------2-----------0--2--------------------3--
G|-----------------------------------------------------------------------
C|-----2-----2--------2-----2--------2-----2--------2-----2--------------

Stave 8:

F|-----------------------------0-----------------------------0--3--5--3-----
C|--2-----------0--2--------------2-----------0--2-----------------------2--
G|--------------------------------------------------------------------------
C|-----2-----2--------2-----2--------2-----2--------2-----2-----------------

Stave 9:

F|---------------------------------------------------------------------
C|--0--2--2--4--2/5--------5--5h7--5-----7--5\4h5--4--------4--4h5--4--
G|---------------------------------------------------------------------
C|---------------------------------------------------------------------

Stave 10:

F|--7--7-----5--5--4--2h4--0--2--4-----7--7-----5--5--4--2h4--2-----4--2p0--0--
C|-----------------------------------------------------------------------------
G|-----------------------------------------------------------------------------
C|-----------------------------------------------------------------------------

Stave 11:

F|-----------------------------------------------------------------------------------------------
C|--0--2--2--4--2/5-----5--5h7--5-----7--5\0-----0--0--2--0-----0--2-----0-----------------------
G|--------------------------------------------------------------------------------------------2--
C|--------------------------------------------------------------------------2--------------------

http://www.guitartabcreator.com
Guitar Tab Creator is intended to store guitar tab created through the tool. It currently does not support in-line text editing. Any text you place in here will be lost. If you need to comment on your tab, please use the "Tab Notes" section located below.