Sound will begin in 5 seconds

Taken the Dare

01234567891011121314151617181920212223
E
B
G
D
A
E
B
0 1 2 3 4 5 6 7 8 9 10 11 12 13 14 15 16 17 18 19 20 21 22 23
Song Science #1: How Pros Use 6 Chords to Write Hit Songs
(/) Slide Up  (\) Slide Down  (h) Hammer On  (p) Pull Off  (b) Bend (r) Release (v) Vibrato

Stave 1:

F|--------------------------------------------------------------
C|--------------------------------------------------------------
G|--------------------------------------------------------------
C|--0--------------------------------0--------------------------

Stave 2:

F|-------------------------------------------------------------------------------
C|-------------------------------------------------------------------------------
G|-------------------------------------------------------------------------------
C|-----9--9--9--9--9--9--5--5--5--5--5--5--8--8--8--8--8--8--2--2--2--2p0--0--0--

Stave 3:

F|----------------------------------------------------------------------------------
C|----------------------------------------------------------------------------------
G|----------------------------------------------------------------------------------
C|--9--9--9--9--9--9--2--2--2--2--2--2/8--8-----8--8--8-----8--8--8-----8--8--8--8--

Stave 4:

F|----------------------------------------------------------------------------
C|----------------------------------------------------------------------------
G|----------------------------------------------------------------------------
C|--9--9--9--9--------5--5--5--5--------8--8--8--8--------2--2--2--2p0--0--0--

Stave 5:

F|----------------------------------------------------------------------------------
C|----------------------------------------------------------------------------------
G|----------------------------------------------------------------------------------
C|--9--9--9--9--------2--2--2--2--------8--8-----8--8--8-----8--8--8-----8--8--8--8\

Stave 6:

F|--------------------------------------------------------------------------------------------------------
C|--------------------------------------------------------------------------------------------------------
G|--------------------------------------------------------------------------------------------------------
C|--0--0-----0--0--0-----0--0--0-----0--2h3--2p0--2p---0--0-----0--0--0-----0--0--0-----0--2h3--2p0--2/3--

Stave 7:

F|----------------------------------------------------------------------------------------------
C|----------------------------------------------------------------------------5--3--2--3--2--0--
G|-------------------------------------------------------------------------3--------------------
C|--3--3-----3--3--3-----3--3--3-----3--3--3-----3--3b3-----3--3--3-----3-----------------------

Stave 8:

F|-----------------------------------------------------------
C|-----------------------------------------------------------
G|--------------3--------------------------------------------
C|--0--------------------------3--------------0--------------

Stave 9:

F|----------------------------------------------------------------------------------
C|----------------------------------------------------------------------------------
G|-----------------3-----3b3--------------------------------------------------------
C|--0-----0--3--5-------------3--------3--3--5--0--------0--0--0--0--0--0--0--0--0--

Stave 10:

F|------------------------------------------------
C|------------------------------------------------
G|--5--5-----5--5--5--5--3--3-----3--0--0--0h1p0--
C|------------------------------------------------

Stave 11:

F|--10--9--7------------10--9--7------------10--9--7------------10--9--7--12--10--9--
C|------------10--9--7------------10--9--7------------10--9--7-----------------------
G|-----------------------------------------------------------------------------------
C|-----------------------------------------------------------------------------------

Stave 12:

F|--9h10p9--7-----7----------------------------------------------------------------
C|----------------------10-----10--12--10--9-----9--10--9--7-----7--7--7--5--5--5--
G|---------------------------------------------------------------------------------
C|---------------------------------------------------------------------------------

Stave 13:

F|----------------------------------------------------------------------
C|----------------------------------------------------------------------
G|--5-----5--5--5--7--7--7--8--8--8--10--10--10--12--12--12--14--14--15\
C|----------------------------------------------------------------------

Stave 14:

F|-------------------9-------------------9-------------------9----------------------
C|--------------7h9-----------------7h9-----------------7h9-------------------------
G|----------------------------------------------------------------------------------
C|--9--9--9--9----------5--5--5--5----------8--8--8--8----------2--2--2--2p0--0--0--

Stave 15:

F|-------------------9-------------------9-----------------------------------------------
C|--------------7h9-----------------7h9--------------------------------------------------
G|---------------------------------------------------------------------------------------
C|--9--9--9--9----------2--2--2--2----------8--8--8--8--8-----8--8--8-----8--8--8--8--8--

Stave 16:

F|-----------------------------------------------------------------------
C|-----------------------------------------------------------------------
G|---------------5--3-----0--3/5--5--5--3--------------------------------
C|--0-----0h3h5----------------------------3-----0--3--0--3--5--0--------

Stave 17:

F|-------------------------------------------------------------------------------------------
C|-------------------------------------------------------------------------------------------
G|--------------------7--5b3-----0--3--5--3--0-----------------------------------------------
C|--0-----0-----3--5----------------------------3-----0--3--3--5--0--------0--0--0--0--0--0--

Stave 18:

F|-----
C|-----
G|-----
C|-----

http://www.guitartabcreator.com
Guitar Tab Creator is intended to store guitar tab created through the tool. It currently does not support in-line text editing. Any text you place in here will be lost. If you need to comment on your tab, please use the "Tab Notes" section located below.