Sound will begin in 5 seconds

Stand Alone

Chords
01234567891011121314151617181920212223
E
B
G
D
A
E
B
0 1 2 3 4 5 6 7 8 9 10 11 12 13 14 15 16 17 18 19 20 21 22 23
Song Science #1: How Pros Use 6 Chords to Write Hit Songs
(/) Slide Up  (\) Slide Down  (h) Hammer On  (p) Pull Off  (b) Bend (r) Release (v) Vibrato

Stave 1:

F|-------------------------------------------------------------------------
C|-------------------------------------------------------------------------
G|-------------------------------------------------------------------------
C|--4--4--6-----------4--4--4--6b---------6--6--4--2--------6--2--7-----7--

Stave 2:

F|--------------2-----1-----------------2-----1--------------------------------------
C|-----------4-----2-----4-----------4-----2-----2--0--------------------------------
G|-----------------------------------------------------------------------------------
C|--4--4--4-----------------4--4--4--------------------0--0--0--0-----0--0--0-----0--

Stave 3:

F|--------------------------------------------------------------
C|--------------------------------------------------------------
G|--------------------------------------------------------------
C|--0--0--0-----0--0--0--0-----0--0--0--0-----0--0--0--0-----0--

Stave 4:

F|-----------------------------------
C|-----------4-----------------4-----
G|-----5--7-----5--------5--7-----5--
C|--0-----------------0--------------

Stave 5:

F|-----------------
C|-----------4--6--
G|-----5--7--------
C|--0--------------

Stave 6:

F|-----------------------------------------------------------
C|--------------------------------------------------9--------
G|--------------------------------------------7--9-----9-----
C|--4--4-----------------------------4--4--------------------

Stave 7:

F|----------------------------------------------------------
C|----------------------------------------------------------
G|--9\1--7--7--4--4--2--2--0--------------7--7--2--2--5--4--
C|----------------------------4--4--------------------------

Stave 8:

F|-----------------------------------------------------------
C|-----------------------------------------------------------
G|--------7--7--4--4--2--2--0--------------7--7--2--2--5--4--
C|--4--4-----------------------4-----4-----------------------

Stave 9:

F|-----------------------------------------------
C|-----------------------------------------------
G|-----------------------------------------------
C|--7--7--7--7--6--0-----7--7--6--0--4--6--4--0--

Stave 10:

F|-----------------------------------------------
C|-----------------------------------------------
G|-----------------------------------------------
C|--7--7--7--7--6--0-----7--7--6--0--4--6--4-----

Stave 11:

F|--------------------------------------------
C|-----------------------7--7--9--6--4--6--7--
G|--------------------------------------------
C|--7--7--7--7--6--0--------------------------

Stave 12:

F|--------------------------------------------------------------------------------------
C|-----------2--2--4--4--4--4--6--6--6--6--7--7--7--------2--2--4--4--4--4--6--6--6--7--
G|--------------------------------------------------------------------------------------
C|--4--4--------------------------------------------4--4--------------------------------

Stave 13:

F|--------------------------------------------------------------------------------------6--
C|-----------2--2--4--4--4--4--6--6--6--6--7--7--7-----------2--2--4--4--4--4--6--6--6-----
G|-----------------------------------------------------------------------------------------
C|--4--4--------------------------------------------4--4-----------------------------------

Stave 14:

F|-----------------------------------------7--
C|-----------4--6--7--4-----4-----4--6--7-----
G|--------------------------------------------
C|--0/16--------------------------------------

Stave 15:

F|--------------------------
C|--4-----4-----4--6--2--2--
G|--------------------------
C|--------------------------

Stave 16:

F|--------6--------------------6-----------------
C|--4--6-----6--4--2--4--4--6-----6--4--2--4-----
G|--------------------------------------------4--
C|-----------------------------------------------

Stave 17:

F|--------------------------------------------------------------------------------------------
C|--------------------------------------------------------------------------------------------
G|--------------------------------------------------------------------------------------------
C|--0--0--0--0--0--0--0--0--0--0--0--0--0--0--0--0--0--0--0--0--0--0--0--0--0--0--0--0--0--0--

Stave 18:

F|---------------------------------------------------------
C|-----------4--6--7--4-----4-----4h5h6--7--6--4--2--4-----
G|------------------------------------------------------4--
C|--0/16---------------------------------------------------

Stave 19:

F|-------------------------11-----11--13--14--13--
C|--4-----4-----4--6--7--4/9------9---------------
G|------------------------------------------------
C|------------------------------------------------

Stave 20:

F|----------------------------------------------------6--
C|--4-----4-----------9----------4-----4-----4--6--7-----
G|--------------7--9-----9--7b---------------------------
C|-------------------------------------------------------

Stave 21:

F|---------------------------6---------------------------------
C|--4-----4-----4h6/7--6--4-----6b---4-----4-----4--6/7--2--2--
G|-------------------------------------------------------------
C|-------------------------------------------------------------

Stave 22:

F|--
C|--
G|--
C|--

Stave 23:

F|--8--
C|--8--
G|--6--
C|-----

http://www.guitartabcreator.com
Guitar Tab Creator is intended to store guitar tab created through the tool. It currently does not support in-line text editing. Any text you place in here will be lost. If you need to comment on your tab, please use the "Tab Notes" section located below.