Sound will begin in 5 seconds

78

Chords
01234567891011121314151617181920212223
E
B
G
D
A
E
B
0 1 2 3 4 5 6 7 8 9 10 11 12 13 14 15 16 17 18 19 20 21 22 23
Song Science #1: How Pros Use 6 Chords to Write Hit Songs
(/) Slide Up  (\) Slide Down  (h) Hammer On  (p) Pull Off  (b) Bend (r) Release (v) Vibrato

Stave 1:

E|------------------------------------------------------|-----------------------------------------------|--
B|------------------------------------------------------|-----------------------------------------------|--
G|-----------------------------------9---9---9---7------|--------------------------------7--7--7--5-----|--
D|--9--9--9--9--9--7--9--10--10--10--10--10--10--10--9--|--7--7--7--7--7--5--7--8--8--8--8--8--8--8--7--|--
A|--7--7--7--7--7--7--7--7---7---7---7---7---7---7---7--|--5--5--5--5--5--5--5--5--5--5--5--5--5--5--5--|--
E|------------------------------------------------------|-----------------------------------------------|--

Stave 2:

E|-----0--|-----0--|-----0--|-----|--------------|--------------|--
B|-----0--|-----0--|-----0--|-----|--------------|--------------|--
G|--0--0--|--4--4--|--5--5--|-----|--------------|--------------|--
D|--2-----|--0-----|--0-----|--5--|--5--5--5--5--|--7--7--7--7--|--
A|--2-----|--2-----|--3-----|--5--|--5--5--5--5--|--7--7--7--7--|--
E|--0-----|--3-----|--5-----|--3--|--3--3--3--3--|--5--5--5--5--|--

Stave 3:

E|------------------------------------|--
B|------------------------------------|--
G|------------------------------------|--
D|------------------7--7--7--7--7--7--|--
A|--8p7--7--8p7--7--5--5--5--5--5--5--|--
E|--5----5--5----5--------------------|--

Stave 4:

E|--------------0--|--------------|-----------------|--
B|--------------0--|--------------|-----------------|--
G|--------------0--|--------------|--2--2--2--------|--
D|-----------5-----|--7--7--5--4--|-----------5--9--|--
A|--7--7--8--2-----|--5--5--5--5--|-----------2--7--|--
E|--5--5--5--0-----|-----------2--|--0--0--1--0-----|--

http://www.guitartabcreator.com
Guitar Tab Creator is intended to store guitar tab created through the tool. It currently does not support in-line text editing. Any text you place in here will be lost. If you need to comment on your tab, please use the "Tab Notes" section located below.