Sound will begin in 5 seconds

Great Fairy's Fountain Theme - The Legend of Zelda - Classical Guitar

Chords
01234567891011121314151617181920212223
E
B
G
D
A
E
B
0 1 2 3 4 5 6 7 8 9 10 11 12 13 14 15 16 17 18 19 20 21 22 23
Song Science #1: How Pros Use 6 Chords to Write Hit Songs
(/) Slide Up  (\) Slide Down  (h) Hammer On  (p) Pull Off  (b) Bend (r) Release (v) Vibrato

Stave 1:

E |--------------------
B |--------------3--5--
G |--------0--3--3--3--
D |--0--2--0--5--5--5--
Bb|--0--0--0--4--------
E |--3--3--------------

Stave 2:

E |--5-----------3-----------2-----------3--------------------------------------------------------------------
B |-----3-----------3-----------3-----------3--------8-----------6-----------5-----------6-----------6--------
G |--------3-----------3-----------3-----------3--0-----5-----------5-----------5-----------5-----------3-----
D |-----------5-----------5-----------5--------------------7-----------7-----------7-----------7-----------5--
Bb|--0--------------------------------------------------------7-----------7-----------7-----------7-----------
E |--------------------------------------------------5-----------------------------------------------3--------

Stave 3:

E |-----0-----------------------0-----------0-----------------------------------------------
B |-----------------4-----------------------------------3-----------2-----------3-----------
G |--------3-----------3-----------3-----------2-----------2-----------2-----------2--------
D |-----------5-----------5-----------5-----------3-----------3-----------3-----------3-----
Bb|--6-----------6-----------6-----------6-----------4-----------4-----------4-----------4--
E |-----------------------------------------1-----------------------------------------------

Stave 4:

E |--5-----------3-----------2-----------3-----------6-----------5-----------4-----------5-----------
B |-----3-----------3-----------3-----------3-----------4-----------4-----------4-----------4--------
G |--------3-----------3-----------3-----------3--0--------5-----------5-----------5-----------5-----
D |-----------5-----------5-----------5-----------------------4-----------4-----------4-----------4--
Bb|--0-----------------------------------------------------------------------4-----------------------
E |--------------------------------------------------5-----------------------------------------------

Stave 5:

E |--8-----------6-----------5-----------6------------------------------------------------------------
B |-----3-----------3-----------3-----------3--------10-----------8-----------6-----------5-----------
G |--------3-----------3-----------3-----------3------------0-----------0-----------0-----------0-----
D |-----------5-----------5-----------5-----------5------8-----------8-----------8-----------8--------
Bb|------------------------------------------------------------6-----------6-----------6-----------6--
E |--3-----------------------------------------------8------------------------------------------------

Stave 6:

E |-----7-----
B |-----5--6--
G |-----5--7--
D |-----5-----
Bb|--0-----0--
E |-----------

http://www.guitartabcreator.com
Guitar Tab Creator is intended to store guitar tab created through the tool. It currently does not support in-line text editing. Any text you place in here will be lost. If you need to comment on your tab, please use the "Tab Notes" section located below.